  0
SECTION
  2
HEADER
  9
$ACADVER
  1
AC1015
  9
$ACADMAINTVER
 70
     6
  9
$DWGCODEPAGE
  3
ANSI_1252
  9
$INSBASE
 10
0.0
 20
0.0
 30
0.0
  9
$EXTMIN
 10
44.4708352026928
 20
40.66765430210216
 30
0.0
  9
$EXTMAX
 10
289.4708352026936
 20
222.6676543021021
 30
0.0
  9
$LIMMIN
 10
0.0
 20
0.0
  9
$LIMMAX
 10
12.0
 20
9.0
  9
$ORTHOMODE
 70
     0
  9
$REGENMODE
 70
     1
  9
$FILLMODE
 70
     1
  9
$QTEXTMODE
 70
     0
  9
$MIRRTEXT
 70
     1
  9
$LTSCALE
 40
1.0
  9
$ATTMODE
 70
     1
  9
$TEXTSIZE
 40
0.2
  9
$TRACEWID
 40
0.05
  9
$TEXTSTYLE
  7
Standard
  9
$CLAYER
  8
0
  9
$CELTYPE
  6
ByLayer
  9
$CECOLOR
 62
   256
  9
$CELTSCALE
 40
1.0
  9
$DISPSILH
 70
     0
  9
$DIMSCALE
 40
1.0
  9
$DIMASZ
 40
0.18
  9
$DIMEXO
 40
0.0625
  9
$DIMDLI
 40
0.38
  9
$DIMRND
 40
0.0
  9
$DIMDLE
 40
0.0
  9
$DIMEXE
 40
0.18
  9
$DIMTP
 40
0.0
  9
$DIMTM
 40
0.0
  9
$DIMTXT
 40
0.18
  9
$DIMCEN
 40
0.09
  9
$DIMTSZ
 40
0.0
  9
$DIMTOL
 70
     0
  9
$DIMLIM
 70
     0
  9
$DIMTIH
 70
     1
  9
$DIMTOH
 70
     1
  9
$DIMSE1
 70
     0
  9
$DIMSE2
 70
     0
  9
$DIMTAD
 70
     0
  9
$DIMZIN
 70
     0
  9
$DIMBLK
  1

  9
$DIMASO
 70
     1
  9
$DIMSHO
 70
     1
  9
$DIMPOST
  1

  9
$DIMAPOST
  1

  9
$DIMALT
 70
     0
  9
$DIMALTD
 70
     2
  9
$DIMALTF
 40
25.4
  9
$DIMLFAC
 40
1.0
  9
$DIMTOFL
 70
     0
  9
$DIMTVP
 40
0.0
  9
$DIMTIX
 70
     0
  9
$DIMSOXD
 70
     0
  9
$DIMSAH
 70
     0
  9
$DIMBLK1
  1

  9
$DIMBLK2
  1

  9
$DIMSTYLE
  2
Standard
  9
$DIMCLRD
 70
     0
  9
$DIMCLRE
 70
     0
  9
$DIMCLRT
 70
     0
  9
$DIMTFAC
 40
1.0
  9
$DIMGAP
 40
0.09
  9
$DIMJUST
 70
     0
  9
$DIMSD1
 70
     0
  9
$DIMSD2
 70
     0
  9
$DIMTOLJ
 70
     1
  9
$DIMTZIN
 70
     0
  9
$DIMALTZ
 70
     0
  9
$DIMALTTZ
 70
     0
  9
$DIMUPT
 70
     0
  9
$DIMDEC
 70
     4
  9
$DIMTDEC
 70
     4
  9
$DIMALTU
 70
     2
  9
$DIMALTTD
 70
     2
  9
$DIMTXSTY
  7
Standard
  9
$DIMAUNIT
 70
     0
  9
$DIMADEC
 70
     0
  9
$DIMALTRND
 40
0.0
  9
$DIMAZIN
 70
     0
  9
$DIMDSEP
 70
    46
  9
$DIMATFIT
 70
     3
  9
$DIMFRAC
 70
     0
  9
$DIMLDRBLK
  1

  9
$DIMLUNIT
 70
     2
  9
$DIMLWD
 70
    -2
  9
$DIMLWE
 70
    -2
  9
$DIMTMOVE
 70
     0
  9
$LUNITS
 70
     2
  9
$LUPREC
 70
     4
  9
$SKETCHINC
 40
0.1
  9
$FILLETRAD
 40
0.5
  9
$AUNITS
 70
     0
  9
$AUPREC
 70
     0
  9
$MENU
  1
.
  9
$ELEVATION
 40
0.0
  9
$PELEVATION
 40
0.0
  9
$THICKNESS
 40
0.0
  9
$LIMCHECK
 70
     0
  9
$CHAMFERA
 40
0.5
  9
$CHAMFERB
 40
0.5
  9
$CHAMFERC
 40
1.0
  9
$CHAMFERD
 40
0.0
  9
$SKPOLY
 70
     0
  9
$TDCREATE
 40
2452802.366407060
  9
$TDUCREATE
 40
2452802.283073727
  9
$TDUPDATE
 40
2453945.579727500
  9
$TDUUPDATE
 40
2453945.496394166
  9
$TDINDWG
 40
0.0121801273
  9
$TDUSRTIMER
 40
0.0121794329
  9
$USRTIMER
 70
     1
  9
$ANGBASE
 50
0.0
  9
$ANGDIR
 70
     0
  9
$PDMODE
 70
     0
  9
$PDSIZE
 40
0.0
  9
$PLINEWID
 40
0.0
  9
$SPLFRAME
 70
     0
  9
$SPLINETYPE
 70
     6
  9
$SPLINESEGS
 70
     8
  9
$HANDSEED
  5
2B03
  9
$SURFTAB1
 70
     6
  9
$SURFTAB2
 70
     6
  9
$SURFTYPE
 70
     6
  9
$SURFU
 70
     6
  9
$SURFV
 70
     6
  9
$UCSBASE
  2

  9
$UCSNAME
  2

  9
$UCSORG
 10
0.0
 20
0.0
 30
0.0
  9
$UCSXDIR
 10
1.0
 20
0.0
 30
0.0
  9
$UCSYDIR
 10
0.0
 20
1.0
 30
0.0
  9
$UCSORTHOREF
  2

  9
$UCSORTHOVIEW
 70
     0
  9
$UCSORGTOP
 10
0.0
 20
0.0
 30
0.0
  9
$UCSORGBOTTOM
 10
0.0
 20
0.0
 30
0.0
  9
$UCSORGLEFT
 10
0.0
 20
0.0
 30
0.0
  9
$UCSORGRIGHT
 10
0.0
 20
0.0
 30
0.0
  9
$UCSORGFRONT
 10
0.0
 20
0.0
 30
0.0
  9
$UCSORGBACK
 10
0.0
 20
0.0
 30
0.0
  9
$PUCSBASE
  2

  9
$PUCSNAME
  2

  9
$PUCSORG
 10
0.0
 20
0.0
 30
0.0
  9
$PUCSXDIR
 10
1.0
 20
0.0
 30
0.0
  9
$PUCSYDIR
 10
0.0
 20
1.0
 30
0.0
  9
$PUCSORTHOREF
  2

  9
$PUCSORTHOVIEW
 70
     0
  9
$PUCSORGTOP
 10
0.0
 20
0.0
 30
0.0
  9
$PUCSORGBOTTOM
 10
0.0
 20
0.0
 30
0.0
  9
$PUCSORGLEFT
 10
0.0
 20
0.0
 30
0.0
  9
$PUCSORGRIGHT
 10
0.0
 20
0.0
 30
0.0
  9
$PUCSORGFRONT
 10
0.0
 20
0.0
 30
0.0
  9
$PUCSORGBACK
 10
0.0
 20
0.0
 30
0.0
  9
$USERI1
 70
     0
  9
$USERI2
 70
     0
  9
$USERI3
 70
     0
  9
$USERI4
 70
     0
  9
$USERI5
 70
     0
  9
$USERR1
 40
0.0
  9
$USERR2
 40
0.0
  9
$USERR3
 40
0.0
  9
$USERR4
 40
0.0
  9
$USERR5
 40
0.0
  9
$WORLDVIEW
 70
     1
  9
$SHADEDGE
 70
     3
  9
$SHADEDIF
 70
    70
  9
$TILEMODE
 70
     1
  9
$MAXACTVP
 70
    64
  9
$PINSBASE
 10
0.0
 20
0.0
 30
0.0
  9
$PLIMCHECK
 70
     0
  9
$PEXTMIN
 10
1.000000000000000E+20
 20
1.000000000000000E+20
 30
1.000000000000000E+20
  9
$PEXTMAX
 10
-1.000000000000000E+20
 20
-1.000000000000000E+20
 30
-1.000000000000000E+20
  9
$PLIMMIN
 10
0.0
 20
0.0
  9
$PLIMMAX
 10
12.0
 20
9.0
  9
$UNITMODE
 70
     0
  9
$VISRETAIN
 70
     1
  9
$PLINEGEN
 70
     0
  9
$PSLTSCALE
 70
     1
  9
$TREEDEPTH
 70
  3020
  9
$CMLSTYLE
  2
Standard
  9
$CMLJUST
 70
     0
  9
$CMLSCALE
 40
1.0
  9
$PROXYGRAPHICS
 70
     1
  9
$MEASUREMENT
 70
     0
  9
$CELWEIGHT
370
    -1
  9
$ENDCAPS
280
     0
  9
$JOINSTYLE
280
     0
  9
$LWDISPLAY
290
     0
  9
$INSUNITS
 70
     1
  9
$HYPERLINKBASE
  1

  9
$STYLESHEET
  1

  9
$XEDIT
290
     1
  9
$CEPSNTYPE
380
     0
  9
$PSTYLEMODE
290
     1
  9
$FINGERPRINTGUID
  2
{FDEAD576-A652-11D2-9A35-0060089B3A3F}
  9
$VERSIONGUID
  2
{B843F424-33AE-4742-90D0-96724C6BA682}
  9
$EXTNAMES
290
     1
  9
$PSVPSCALE
 40
0.0
  9
$OLESTARTUP
290
     0
  0
ENDSEC
  0
SECTION
  2
CLASSES
  0
CLASS
  1
ACDBDICTIONARYWDFLT
  2
AcDbDictionaryWithDefault
  3
AutoCAD 2000
 90
        0
280
     0
281
     0
  0
CLASS
  1
ACDBPLACEHOLDER
  2
AcDbPlaceHolder
  3
AutoCAD 2000
 90
        0
280
     0
281
     0
  0
CLASS
  1
LAYOUT
  2
AcDbLayout
  3
AutoCAD 2000
 90
        0
280
     0
281
     0
  0
CLASS
  1
DICTIONARYVAR
  2
AcDbDictionaryVar
  3
AutoCAD 2000
 90
        0
280
     0
281
     0
  0
ENDSEC
  0
SECTION
  2
TABLES
  0
TABLE
  2
VPORT
  5
8
330
0
100
AcDbSymbolTable
 70
     3
  0
VPORT
  5
2B02
330
8
100
AcDbSymbolTableRecord
100
AcDbViewportTableRecord
  2
*Active
 70
     0
 10
0.0
 20
0.0
 11
1.0
 21
1.0
 12
160.8003214755251
 22
143.1726224876714
 13
0.0
 23
0.0
 14
0.5
 24
0.5
 15
0.5
 25
0.5
 16
0.0
 26
0.0
 36
1.0
 17
0.0
 27
0.0
 37
0.0
 40
268.2694604709388
 41
1.549549549549549
 42
50.0
 43
0.0
 44
0.0
 50
0.0
 51
0.0
 71
     0
 72
   100
 73
     1
 74
     3
 75
     0
 76
     0
 77
     0
 78
     0
281
     0
 65
     1
110
0.0
120
0.0
130
0.0
111
1.0
121
0.0
131
0.0
112
0.0
122
1.0
132
0.0
 79
     0
146
0.0
  0
ENDTAB
  0
TABLE
  2
LTYPE
  5
5
330
0
100
AcDbSymbolTable
 70
     3
  0
LTYPE
  5
14
330
5
100
AcDbSymbolTableRecord
100
AcDbLinetypeTableRecord
  2
ByBlock
 70
     0
  3

 72
    65
 73
     0
 40
0.0
  0
LTYPE
  5
15
330
5
100
AcDbSymbolTableRecord
100
AcDbLinetypeTableRecord
  2
ByLayer
 70
     0
  3

 72
    65
 73
     0
 40
0.0
  0
LTYPE
  5
16
330
5
100
AcDbSymbolTableRecord
100
AcDbLinetypeTableRecord
  2
Continuous
 70
     0
  3
Solid line
 72
    65
 73
     0
 40
0.0
  0
LTYPE
  5
288
330
5
100
AcDbSymbolTableRecord
100
AcDbLinetypeTableRecord
  2
DASHED
 70
     0
  3
__ __ __ __ __ __ __ __ __ __ __ __ __ __ __ __
 72
    65
 73
     2
 40
0.75
 49
0.5
 74
     0
 49
-0.25
 74
     0
  0
LTYPE
  5
289
330
5
100
AcDbSymbolTableRecord
100
AcDbLinetypeTableRecord
  2
CENTER
 70
     0
  3
____ _ ____ _ ____ _ ____ _ ____ _ ____ _ ____
 72
    65
 73
     4
 40
2.0
 49
1.25
 74
     0
 49
-0.25
 74
     0
 49
0.25
 74
     0
 49
-0.25
 74
     0
  0
ENDTAB
  0
TABLE
  2
LAYER
  5
2
330
0
100
AcDbSymbolTable
 70
    11
  0
LAYER
  5
10
330
2
100
AcDbSymbolTableRecord
100
AcDbLayerTableRecord
  2
0
 70
     0
 62
   250
  6
Continuous
370
    -3
390
F
  0
LAYER
  5
28A
330
2
100
AcDbSymbolTableRecord
100
AcDbLayerTableRecord
  2
konin
 70
     0
 62
     6
  6
Continuous
370
    -3
390
F
  0
LAYER
  5
28B
330
2
100
AcDbSymbolTableRecord
100
AcDbLayerTableRecord
  2
Defpoints
 70
     0
 62
   250
  6
Continuous
290
     0
370
    -3
390
F
  0
LAYER
  5
28C
330
2
100
AcDbSymbolTableRecord
100
AcDbLayerTableRecord
  2
KONTUR
 70
     0
 62
   250
  6
Continuous
370
    -3
390
F
  0
LAYER
  5
28D
330
2
100
AcDbSymbolTableRecord
100
AcDbLayerTableRecord
  2
KONKORT
 70
     0
 62
     5
  6
DASHED
370
    -3
390
F
  0
LAYER
  5
28E
330
2
100
AcDbSymbolTableRecord
100
AcDbLayerTableRecord
  2
KONCENTER
 70
     0
 62
     1
  6
CENTER
370
    -3
390
F
  0
LAYER
  5
28F
330
2
100
AcDbSymbolTableRecord
100
AcDbLayerTableRecord
  2
KONMAAL
 70
     0
 62
     3
  6
Continuous
370
    -3
390
F
  0
LAYER
  5
290
330
2
100
AcDbSymbolTableRecord
100
AcDbLayerTableRecord
  2
KONTEKST
 70
     0
 62
     4
  6
Continuous
370
    -3
390
F
  0
LAYER
  5
291
330
2
100
AcDbSymbolTableRecord
100
AcDbLayerTableRecord
  2
KONSKRAV
 70
     0
 62
     3
  6
Continuous
370
    -3
390
F
  0
LAYER
  5
292
330
2
100
AcDbSymbolTableRecord
100
AcDbLayerTableRecord
  2
PGRIN1
 70
     0
 62
     6
  6
Continuous
370
    -3
390
F
  0
LAYER
  5
293
330
2
100
AcDbSymbolTableRecord
100
AcDbLayerTableRecord
  2
TEKST
 70
     0
 62
     4
  6
Continuous
370
    -3
390
F
  0
ENDTAB
  0
TABLE
  2
STYLE
  5
3
330
0
100
AcDbSymbolTable
 70
     1
  0
STYLE
  5
11
330
3
100
AcDbSymbolTableRecord
100
AcDbTextStyleTableRecord
  2
Standard
 70
     0
 40
0.0
 41
1.0
 50
0.0
 71
     0
 42
0.2
  3
txt
  4

  0
ENDTAB
  0
TABLE
  2
VIEW
  5
6
330
0
100
AcDbSymbolTable
 70
     0
  0
ENDTAB
  0
TABLE
  2
UCS
  5
7
330
0
100
AcDbSymbolTable
 70
     0
  0
ENDTAB
  0
TABLE
  2
APPID
  5
9
330
0
100
AcDbSymbolTable
 70
     1
  0
APPID
  5
12
330
9
100
AcDbSymbolTableRecord
100
AcDbRegAppTableRecord
  2
ACAD
 70
     0
  0
ENDTAB
  0
TABLE
  2
DIMSTYLE
  5
A
330
0
100
AcDbSymbolTable
 70
     1
100
AcDbDimStyleTable
 71
     0
  0
DIMSTYLE
105
27
330
A
100
AcDbSymbolTableRecord
100
AcDbDimStyleTableRecord
  2
Standard
 70
     0
340
11
  0
ENDTAB
  0
TABLE
  2
BLOCK_RECORD
  5
1
330
0
100
AcDbSymbolTable
 70
     3
  0
BLOCK_RECORD
  5
1F
330
1
100
AcDbSymbolTableRecord
100
AcDbBlockTableRecord
  2
*Model_Space
340
22
  0
BLOCK_RECORD
  5
1B
330
1
100
AcDbSymbolTableRecord
100
AcDbBlockTableRecord
  2
*Paper_Space
340
1E
  0
BLOCK_RECORD
  5
23
330
1
100
AcDbSymbolTableRecord
100
AcDbBlockTableRecord
  2
*Paper_Space0
340
26
  0
BLOCK_RECORD
  5
48
330
1
100
AcDbSymbolTableRecord
100
AcDbBlockTableRecord
  2
A$C5A270E3C
340
0
102
{BLKREFS
331
25E
102
}
  0
BLOCK_RECORD
  5
24A
330
1
100
AcDbSymbolTableRecord
100
AcDbBlockTableRecord
  2
SCANHOV
340
0
102
{BLKREFS
331
1FBF
102
}
  0
ENDTAB
  0
ENDSEC
  0
SECTION
  2
BLOCKS
  0
BLOCK
  5
20
330
1F
100
AcDbEntity
  8
0
100
AcDbBlockBegin
  2
*Model_Space
 70
     0
 10
0.0
 20
0.0
 30
0.0
  3
*Model_Space
  1

  0
ENDBLK
  5
21
330
1F
100
AcDbEntity
  8
0
100
AcDbBlockEnd
  0
BLOCK
  5
1C
330
1B
100
AcDbEntity
 67
     1
  8
0
100
AcDbBlockBegin
  2
*Paper_Space
 70
     0
 10
0.0
 20
0.0
 30
0.0
  3
*Paper_Space
  1

  0
ENDBLK
  5
1D
330
1B
100
AcDbEntity
 67
     1
  8
0
100
AcDbBlockEnd
  0
BLOCK
  5
24
330
23
100
AcDbEntity
  8
0
100
AcDbBlockBegin
  2
*Paper_Space0
 70
     0
 10
0.0
 20
0.0
 30
0.0
  3
*Paper_Space0
  1

  0
ENDBLK
  5
25
330
23
100
AcDbEntity
  8
0
100
AcDbBlockEnd
  0
BLOCK
  5
248
330
48
100
AcDbEntity
  8
0
100
AcDbBlockBegin
  2
A$C5A270E3C
 70
     0
 10
0.0
 20
0.0
 30
0.0
  3
A$C5A270E3C
  1

  0
LINE
  5
49
330
48
100
AcDbEntity
  8
konin
  6
Continuous
 62
   250
 48
0.0
100
AcDbLine
 10
14.58757176799321
 20
0.0000187852708819
 30
0.0
 11
19.28513684672856
 21
0.0000016191331866
 31
0.0
210
0.0
220
0.0
230
0.0
  0
LINE
  5
4A
330
48
100
AcDbEntity
  8
konin
  6
Continuous
 62
   250
 48
0.0
100
AcDbLine
 10
16.93635144633793
 20
1.125001619133186
 30
0.0
 11
18.48964085979008
 21
1.125018785270881
 31
0.0
210
0.0
220
0.0
230
0.0
  0
LINE
  5
4B
330
48
100
AcDbEntity
  8
konin
  6
Continuous
 62
   250
 48
0.0
100
AcDbLine
 10
7.694045690722703
 20
1.723327348503303
 30
0.0
 11
6.193685201831101
 21
2.125364015373421
 31
0.0
210
0.0
220
0.0
230
0.0
  0
LINE
  5
4C
330
48
100
AcDbEntity
  8
konin
  6
Continuous
 62
   250
 48
0.0
100
AcDbLine
 10
9.671624807543992
 20
0.028766343864632
 30
0.0
 11
5.134128240771474
 21
1.244569490226936
 31
0.0
210
0.0
220
0.0
230
0.0
  0
ARC
  5
4D
330
48
100
AcDbEntity
  8
konin
  6
Continuous
 62
     0
 48
0.0
100
AcDbCircle
 10
5.352504400439443
 20
2.059571931633186
 30
0.0
 40
0.8437367489025362
100
AcDbArc
 50
224.9991757228492
 51
115.528614705563
  0
LINE
  5
4E
330
48
100
AcDbEntity
  8
konin
  6
Continuous
 62
   250
 48
0.0
100
AcDbLine
 10
6.258058218188523
 20
1.816945741447639
 30
0.0
 11
6.039682058520554
 21
1.001943300041389
 31
0.0
210
0.0
220
0.0
230
0.0
  0
ARC
  5
4F
330
48
100
AcDbEntity
  8
konin
  6
Continuous
 62
     0
 48
0.0
100
AcDbCircle
 10
5.352504400439443
 20
2.059571931633186
 30
0.0
 40
0.8437367489025362
100
AcDbArc
 50
224.9991757228492
 51
115.528614705563
  0
LINE
  5
50
330
48
100
AcDbEntity
  8
konin
  6
Continuous
 62
   250
 48
0.0
100
AcDbLine
 10
4.75588384074706
 20
1.462968538078499
 30
0.0
 11
1.4342018644287
 21
4.78464479235096
 31
0.0
210
0.0
220
0.0
230
0.0
  0
CIRCLE
  5
51
330
48
100
AcDbEntity
  8
konin
  6
Continuous
 62
     0
 48
0.0
100
AcDbCircle
 10
5.352504400439443
 20
2.059571931633186
 30
0.0
 40
0.46875
  0
LINE
  5
52
330
48
100
AcDbEntity
  8
konin
  6
Continuous
 62
   250
 48
0.0
100
AcDbLine
 10
6.258058218188523
 20
1.816945741447639
 30
0.0
 11
6.330854086108445
 21
2.088611314567756
 31
0.0
210
0.0
220
0.0
230
0.0
  0
CIRCLE
  5
53
330
48
100
AcDbEntity
  8
konin
  6
Continuous
 62
     0
 48
0.0
100
AcDbCircle
 10
5.352504400439443
 20
2.059571931633186
 30
0.0
 40
0.46875
  0
LINE
  5
54
330
48
100
AcDbEntity
  8
konin
  6
Continuous
 62
   250
 48
0.0
100
AcDbLine
 10
12.83317919182877
 20
1.687518785270881
 30
0.0
 11
11.3699934984923
 21
1.687518785270881
 31
0.0
210
0.0
220
0.0
230
0.0
  0
LINE
  5
55
330
48
100
AcDbEntity
  8
konin
  6
Continuous
 62
   250
 48
0.0
100
AcDbLine
 10
11.94037595195317
 20
2.266658494743538
 30
0.0
 11
12.66482129497075
 21
2.460773179802131
 31
0.0
210
0.0
220
0.0
230
0.0
  0
LINE
  5
56
330
48
100
AcDbEntity
  8
konin
  6
Continuous
 62
   250
 48
0.0
100
AcDbLine
 10
12.23878636760258
 20
1.125018785270881
 30
0.0
 11
13.79207578105473
 21
1.125001619133186
 31
0.0
210
0.0
220
0.0
230
0.0
  0
LINE
  5
57
330
48
100
AcDbEntity
  8
konin
  6
Continuous
 62
   250
 48
0.0
100
AcDbLine
 10
9.890006689257859
 20
0.0000016191331866
 30
0.0
 11
14.58757176799321
 21
0.0000187852708819
 31
0.0
210
0.0
220
0.0
230
0.0
  0
LINE
  5
58
330
48
100
AcDbEntity
  8
konin
  6
Continuous
 62
   250
 48
0.0
100
AcDbLine
 10
11.3699934984923
 20
1.687518785270881
 30
0.0
 11
11.3699934984923
 21
1.175644696372231
 31
0.0
210
0.0
220
0.0
230
0.0
  0
LINE
  5
59
330
48
100
AcDbEntity
  8
konin
  6
Continuous
 62
   250
 48
0.0
100
AcDbLine
 10
7.694045690722703
 20
1.723327348503303
 30
0.0
 11
9.194406179614304
 21
1.321325013908577
 31
0.0
210
0.0
220
0.0
230
0.0
  0
ARC
  5
5A
330
48
100
AcDbEntity
  8
konin
  6
Continuous
 62
     0
 48
0.0
100
AcDbCircle
 10
9.890006689257859
 20
0.8437516191331866
 30
0.0
 40
0.8437518157666257
100
AcDbArc
 50
255.0002024393466
 51
145.5285391357993
  0
ARC
  5
5B
330
48
100
AcDbEntity
  8
konin
  6
Continuous
 62
     0
 48
0.0
100
AcDbCircle
 10
9.890006689257859
 20
0.8437516191331866
 30
0.0
 40
0.8437518157666257
100
AcDbArc
 50
255.0002024393466
 51
145.5285391357993
  0
LINE
  5
5C
330
48
100
AcDbEntity
  8
konin
  6
Continuous
 62
   250
 48
0.0
100
AcDbLine
 10
11.36151662272953
 20
1.529229829582405
 30
0.0
 11
10.58560147685551
 21
1.321307847770881
 31
0.0
210
0.0
220
0.0
230
0.0
  0
ARC
  5
5D
330
48
100
AcDbEntity
  8
konin
  6
Continuous
 62
     0
 48
0.0
100
AcDbCircle
 10
9.890006689257859
 20
0.8437516191331866
 30
0.0
 40
0.8437565312235223
100
AcDbArc
 50
19.47230022158215
 51
145.5285988928554
  0
LINE
  5
5E
330
48
100
AcDbEntity
  8
konin
  6
Continuous
 62
   250
 48
0.0
100
AcDbLine
 10
11.93656082022511
 20
1.125015445233103
 30
0.0
 11
10.68549695415043
 21
1.125001619133186
 31
0.0
210
0.0
220
0.0
230
0.0
  0
LINE
  5
5F
330
48
100
AcDbEntity
  8
konin
  6
Continuous
 62
   250
 48
0.0
100
AcDbLine
 10
12.23878636760258
 20
1.125018785270881
 30
0.0
 11
11.93656082022511
 21
1.125015445233103
 31
0.0
210
0.0
220
0.0
230
0.0
  0
LINE
  5
60
330
48
100
AcDbEntity
  8
konin
  6
Continuous
 62
   250
 48
0.0
100
AcDbLine
 10
10.82750668925785
 20
0.8437516191331866
 30
0.0
 11
10.82750668925785
 21
0.0000016191331866
 31
0.0
210
0.0
220
0.0
230
0.0
  0
LINE
  5
61
330
48
100
AcDbEntity
  8
konin
  6
Continuous
 62
   250
 48
0.0
100
AcDbLine
 10
10.82750668925785
 20
0.8437516191331866
 30
0.0
 11
10.82750668925785
 21
1.125001619133186
 31
0.0
210
0.0
220
0.0
230
0.0
  0
ARC
  5
62
330
48
100
AcDbEntity
  8
konin
  6
Continuous
 62
     0
 48
0.0
100
AcDbCircle
 10
9.890006689257859
 20
0.8437516191331866
 30
0.0
 40
0.8437518157666257
100
AcDbArc
 50
255.0002024393466
 51
270.0
  0
CIRCLE
  5
63
330
48
100
AcDbEntity
  8
konin
  6
Continuous
 62
     0
 48
0.0
100
AcDbCircle
 10
9.890006689257859
 20
0.8437516191331866
 30
0.0
 40
0.46875
  0
CIRCLE
  5
64
330
48
100
AcDbEntity
  8
konin
  6
Continuous
 62
     0
 48
0.0
100
AcDbCircle
 10
9.890006689257859
 20
0.8437516191331866
 30
0.0
 40
0.46875
  0
CIRCLE
  5
65
330
48
100
AcDbEntity
  8
konin
  6
Continuous
 62
     0
 48
0.0
100
AcDbCircle
 10
9.890006689257859
 20
0.8437516191331866
 30
0.0
 40
0.46875
  0
LINE
  5
66
330
48
100
AcDbEntity
  8
konin
  6
Continuous
 62
   250
 48
0.0
100
AcDbLine
 10
7.11518636149907
 20
2.460790345939827
 30
0.0
 11
6.969600347705124
 21
1.917442033561897
 31
0.0
210
0.0
220
0.0
230
0.0
  0
LINE
  5
67
330
48
100
AcDbEntity
  8
konin
  6
Continuous
 62
   250
 48
0.0
100
AcDbLine
 10
7.839631704516648
 20
2.266675660881233
 30
0.0
 11
7.11518636149907
 21
2.460790345939827
 31
0.0
210
0.0
220
0.0
230
0.0
  0
LINE
  5
68
330
48
100
AcDbEntity
  8
konin
  6
Continuous
 62
   250
 48
0.0
100
AcDbLine
 10
8.564077047534226
 20
2.072560975822639
 30
0.0
 11
8.418491033740281
 21
1.52921266344471
 31
0.0
210
0.0
220
0.0
230
0.0
  0
LINE
  5
69
330
48
100
AcDbEntity
  8
konin
  6
Continuous
 62
   250
 48
0.0
100
AcDbLine
 10
7.839631704516648
 20
2.266675660881233
 30
0.0
 11
8.564077047534226
 21
2.072560975822639
 31
0.0
210
0.0
220
0.0
230
0.0
  0
LINE
  5
6A
330
48
100
AcDbEntity
  8
konin
  6
Continuous
 62
   250
 48
0.0
100
AcDbLine
 10
11.21593060893559
 20
2.072543809684944
 30
0.0
 11
11.36151662272953
 21
1.529229829582405
 31
0.0
210
0.0
220
0.0
230
0.0
  0
LINE
  5
6B
330
48
100
AcDbEntity
  8
konin
  6
Continuous
 62
   250
 48
0.0
100
AcDbLine
 10
11.94037595195317
 20
2.266658494743538
 30
0.0
 11
11.21593060893559
 21
2.072543809684944
 31
0.0
210
0.0
220
0.0
230
0.0
  0
LINE
  5
6C
330
48
100
AcDbEntity
  8
konin
  6
Continuous
 62
   250
 48
0.0
100
AcDbLine
 10
12.98878636760258
 20
1.687518785270881
 30
0.0
 11
12.98878636760258
 21
1.125018785270881
 31
0.0
210
0.0
220
0.0
230
0.0
  0
ARC
  5
6D
330
48
100
AcDbEntity
  8
konin
  6
Continuous
 62
     0
 48
0.0
100
AcDbCircle
 10
14.58757176799321
 20
0.8437687852708819
 30
0.0
 40
0.84375
100
AcDbArc
 50
270.0
 51
160.5298441569347
  0
CIRCLE
  5
6E
330
48
100
AcDbEntity
  8
konin
  6
Continuous
 62
     0
 48
0.0
100
AcDbCircle
 10
14.58757176799321
 20
0.8437687852708819
 30
0.0
 40
0.84375
  0
ARC
  5
6F
330
48
100
AcDbEntity
  8
konin
  6
Continuous
 62
     0
 48
0.0
100
AcDbCircle
 10
14.58757176799321
 20
0.8437687852708819
 30
0.0
 40
0.8437450871427007
100
AcDbArc
 50
19.47010218554521
 51
160.5298978144548
  0
LINE
  5
70
330
48
100
AcDbEntity
  8
konin
  6
Continuous
 62
   250
 48
0.0
100
AcDbLine
 10
16.18635144633793
 20
1.687501619133186
 30
0.0
 11
16.18635144633793
 21
1.125001619133186
 31
0.0
210
0.0
220
0.0
230
0.0
  0
LINE
  5
71
330
48
100
AcDbEntity
  8
konin
  6
Continuous
 62
   250
 48
0.0
100
AcDbLine
 10
17.68635144633793
 20
1.687501619133186
 30
0.0
 11
17.68635144633793
 21
1.125001619133186
 31
0.0
210
0.0
220
0.0
230
0.0
  0
CIRCLE
  5
72
330
48
100
AcDbEntity
  8
konin
  6
Continuous
 62
     0
 48
0.0
100
AcDbCircle
 10
14.58757176799321
 20
0.8437687852708819
 30
0.0
 40
0.46875
  0
CIRCLE
  5
73
330
48
100
AcDbEntity
  8
konin
  6
Continuous
 62
     0
 48
0.0
100
AcDbCircle
 10
14.58757176799321
 20
0.8437687852708819
 30
0.0
 40
0.46875
  0
LINE
  5
74
330
48
100
AcDbEntity
  8
konin
  6
Continuous
 62
   250
 48
0.0
100
AcDbLine
 10
15.52625623149418
 20
0.8437516191331866
 30
0.0
 11
15.52625623149418
 21
0.0000016191331866
 31
0.0
210
0.0
220
0.0
230
0.0
  0
LINE
  5
75
330
48
100
AcDbEntity
  8
konin
  6
Continuous
 62
   250
 48
0.0
100
AcDbLine
 10
15.52625623149418
 20
0.8437516191331866
 30
0.0
 11
15.52625623149418
 21
1.125001619133186
 31
0.0
210
0.0
220
0.0
230
0.0
  0
LINE
  5
76
330
48
100
AcDbEntity
  8
konin
  6
Continuous
 62
   250
 48
0.0
100
AcDbLine
 10
16.93635144633793
 20
1.125001619133186
 30
0.0
 11
15.38306775493168
 21
1.125001619133186
 31
0.0
210
0.0
220
0.0
230
0.0
  0
LINE
  5
77
330
48
100
AcDbEntity
  8
konin
  6
Continuous
 62
   250
 48
0.0
100
AcDbLine
 10
12.81040730876469
 20
1.917459199699592
 30
0.0
 11
12.87180951710434
 21
1.735144781737503
 31
0.0
210
0.0
220
0.0
230
0.0
  0
LINE
  5
78
330
48
100
AcDbEntity
  8
konin
  6
Continuous
 62
   250
 48
0.0
100
AcDbLine
 10
12.98878636760258
 20
1.687518785270881
 30
0.0
 11
12.83317919182877
 21
1.687518785270881
 31
0.0
210
0.0
220
0.0
230
0.0
  0
LINE
  5
79
330
48
100
AcDbEntity
  8
konin
  6
Continuous
 62
   250
 48
0.0
100
AcDbLine
 10
12.66482129497075
 20
2.460773179802131
 30
0.0
 11
12.81040730876469
 21
1.917459199699592
 31
0.0
210
0.0
220
0.0
230
0.0
  0
ARC
  5
7A
330
48
100
AcDbEntity
  8
konin
  6
Continuous
 62
     0
 48
0.0
100
AcDbCircle
 10
14.42750325603032
 20
2.059589097770881
 30
0.0
 40
0.8437507754809074
100
AcDbArc
 50
64.47136957847051
 51
175.530129277389
  0
ARC
  5
7B
330
48
100
AcDbEntity
  8
konin
  6
Continuous
 62
     0
 48
0.0
100
AcDbCircle
 10
14.42750325603032
 20
2.059589097770881
 30
0.0
 40
0.8437507754809074
100
AcDbArc
 50
64.47136957847051
 51
175.530129277389
  0
LINE
  5
7C
330
48
100
AcDbEntity
  8
konin
  6
Continuous
 62
   250
 48
0.0
100
AcDbLine
 10
12.81040730876469
 20
1.917459199699592
 30
0.0
 11
13.58632245463871
 21
2.125346849235725
 31
0.0
210
0.0
220
0.0
230
0.0
  0
LINE
  5
7D
330
48
100
AcDbEntity
  8
konin
  6
Continuous
 62
   250
 48
0.0
100
AcDbLine
 10
16.93635144633793
 20
1.687501619133186
 30
0.0
 11
16.18635144633793
 21
1.687501619133186
 31
0.0
210
0.0
220
0.0
230
0.0
  0
LINE
  5
7E
330
48
100
AcDbEntity
  8
konin
  6
Continuous
 62
   250
 48
0.0
100
AcDbLine
 10
16.93635144633793
 20
1.687501619133186
 30
0.0
 11
17.68635144633793
 21
1.687501619133186
 31
0.0
210
0.0
220
0.0
230
0.0
  0
LINE
  5
7F
330
48
100
AcDbEntity
  8
konin
  6
Continuous
 62
   250
 48
0.0
100
AcDbLine
 10
40.23729503253981
 20
1.727639674219162
 30
0.0
 11
41.7376555214314
 21
2.129676341089279
 31
0.0
210
0.0
220
0.0
230
0.0
  0
LINE
  5
80
330
48
100
AcDbEntity
  8
konin
  6
Continuous
 62
   250
 48
0.0
100
AcDbLine
 10
38.25971591571851
 20
0.0330786695804903
 30
0.0
 11
42.79721248249098
 21
1.248881815942795
 31
0.0
210
0.0
220
0.0
230
0.0
  0
LINE
  5
81
330
48
100
AcDbEntity
  8
konin
  6
Continuous
 62
   250
 48
0.0
100
AcDbLine
 10
33.34376895526929
 20
0.0043311109867403
 30
0.0
 11
28.64620387653394
 21
0.004313944849045
 31
0.0
210
0.0
220
0.0
230
0.0
  0
LINE
  5
82
330
48
100
AcDbEntity
  8
konin
  6
Continuous
 62
   250
 48
0.0
100
AcDbLine
 10
30.99498927692457
 20
1.129313944849045
 30
0.0
 11
29.44169986347242
 21
1.12933111098674
 31
0.0
210
0.0
220
0.0
230
0.0
  0
ARC
  5
83
330
48
100
AcDbEntity
  8
konin
  6
Continuous
 62
     0
 48
0.0
100
AcDbCircle
 10
23.94626987079664
 20
0.8480782499637911
 30
0.0
 40
0.8437500000000214
100
AcDbArc
 50
19.47120121101503
 51
270.0
  0
CIRCLE
  5
84
330
48
100
AcDbEntity
  8
konin
  6
Continuous
 62
     0
 48
0.0
100
AcDbCircle
 10
23.94863879779859
 20
0.8480782499637911
 30
0.0
 40
0.84375
  0
CIRCLE
  5
85
330
48
100
AcDbEntity
  8
konin
  6
Continuous
 62
     0
 48
0.0
100
AcDbCircle
 10
23.94863879779859
 20
0.8480782499637911
 30
0.0
 40
0.46875
  0
CIRCLE
  5
86
330
48
100
AcDbEntity
  8
konin
  6
Continuous
 62
     0
 48
0.0
100
AcDbCircle
 10
23.94863879779859
 20
0.8480782499637911
 30
0.0
 40
0.46875
  0
ARC
  5
87
330
48
100
AcDbEntity
  8
konin
  6
Continuous
 62
     0
 48
0.0
100
AcDbCircle
 10
23.94863879779859
 20
0.8480782499637911
 30
0.0
 40
0.843750809027891
100
AcDbArc
 50
19.47120121101686
 51
160.5287987889831
  0
LINE
  5
88
330
48
100
AcDbEntity
  8
konin
  6
Continuous
 62
   250
 48
0.0
100
AcDbLine
 10
19.28513684672856
 20
0.0000016191331866
 30
0.0
 11
23.98270192546391
 21
0.0000159242479327
 31
0.0
210
0.0
220
0.0
230
0.0
  0
ARC
  5
89
330
48
100
AcDbEntity
  8
konin
  6
Continuous
 62
     0
 48
0.0
100
AcDbCircle
 10
19.28632131022953
 20
0.8437687852708819
 30
0.0
 40
0.84375
100
AcDbArc
 50
270.0
 51
160.5298441569347
  0
CIRCLE
  5
8A
330
48
100
AcDbEntity
  8
konin
  6
Continuous
 62
     0
 48
0.0
100
AcDbCircle
 10
19.28513684672856
 20
0.8437516191331866
 30
0.0
 40
0.84375
  0
LINE
  5
8B
330
48
100
AcDbEntity
  8
konin
  6
Continuous
 62
   250
 48
0.0
100
AcDbLine
 10
20.88391652507329
 20
1.687518785270881
 30
0.0
 11
20.88391652507329
 21
1.125018785270881
 31
0.0
210
0.0
220
0.0
230
0.0
  0
LINE
  5
8C
330
48
100
AcDbEntity
  8
konin
  6
Continuous
 62
   250
 48
0.0
100
AcDbLine
 10
22.38391652507329
 20
1.687515924247932
 30
0.0
 11
22.38391652507329
 21
1.125015924247932
 31
0.0
210
0.0
220
0.0
230
0.0
  0
ARC
  5
8D
330
48
100
AcDbEntity
  8
konin
  6
Continuous
 62
     0
 48
0.0
100
AcDbCircle
 10
19.28513684672856
 20
0.8437516191331866
 30
0.0
 40
0.8437565312235223
100
AcDbArc
 50
19.47230022158215
 51
160.5276997784178
  0
LINE
  5
8E
330
48
100
AcDbEntity
  8
konin
  6
Continuous
 62
   250
 48
0.0
100
AcDbLine
 10
21.63391652507328
 20
1.125015924247932
 30
0.0
 11
20.08063283366703
 21
1.125018785270881
 31
0.0
210
0.0
220
0.0
230
0.0
  0
LINE
  5
8F
330
48
100
AcDbEntity
  8
konin
  6
Continuous
 62
   250
 48
0.0
100
AcDbLine
 10
20.22500577373051
 20
0.8437516191331866
 30
0.0
 11
20.22500577373051
 21
0.0000016191331866
 31
0.0
210
0.0
220
0.0
230
0.0
  0
LINE
  5
90
330
48
100
AcDbEntity
  8
konin
  6
Continuous
 62
   250
 48
0.0
100
AcDbLine
 10
20.22500577373051
 20
0.8437516191331866
 30
0.0
 11
20.22500577373051
 21
1.125001619133186
 31
0.0
210
0.0
220
0.0
230
0.0
  0
CIRCLE
  5
91
330
48
100
AcDbEntity
  8
konin
  6
Continuous
 62
     0
 48
0.0
100
AcDbCircle
 10
19.28513684672856
 20
0.8437516191331866
 30
0.0
 40
0.46875
  0
CIRCLE
  5
92
330
48
100
AcDbEntity
  8
konin
  6
Continuous
 62
     0
 48
0.0
100
AcDbCircle
 10
19.28513684672856
 20
0.8437516191331866
 30
0.0
 40
0.46875
  0
LINE
  5
93
330
48
100
AcDbEntity
  8
konin
  6
Continuous
 62
   250
 48
0.0
100
AcDbLine
 10
23.00758540729566
 20
0.8480782499637911
 30
0.0
 11
23.00758540729566
 21
0.0043282499637911
 31
0.0
210
0.0
220
0.0
230
0.0
  0
LINE
  5
94
330
48
100
AcDbEntity
  8
konin
  6
Continuous
 62
   250
 48
0.0
100
AcDbLine
 10
23.00758540729566
 20
0.8480782499637911
 30
0.0
 11
23.00758540729566
 21
1.129328249963791
 31
0.0
210
0.0
220
0.0
230
0.0
  0
LINE
  5
95
330
48
100
AcDbEntity
  8
konin
  6
Continuous
 62
   250
 48
0.0
100
AcDbLine
 10
21.63391652507328
 20
1.125015924247932
 30
0.0
 11
23.18720593852543
 21
1.125015924247932
 31
0.0
210
0.0
220
0.0
230
0.0
  0
LINE
  5
96
330
48
100
AcDbEntity
  8
konin
  6
Continuous
 62
   250
 48
0.0
100
AcDbLine
 10
21.63391652507328
 20
1.687515924247932
 30
0.0
 11
20.88391652507329
 21
1.687518785270881
 31
0.0
210
0.0
220
0.0
230
0.0
  0
LINE
  5
97
330
48
100
AcDbEntity
  8
konin
  6
Continuous
 62
   250
 48
0.0
100
AcDbLine
 10
21.63391652507328
 20
1.687515924247932
 30
0.0
 11
22.38391652507329
 21
1.687515924247932
 31
0.0
210
0.0
220
0.0
230
0.0
  0
ARC
  5
98
330
48
100
AcDbEntity
  8
konin
  6
Continuous
 62
     0
 48
0.0
100
AcDbCircle
 10
28.64501941303297
 20
0.8480811109867403
 30
0.0
 40
0.8437500000000408
100
AcDbArc
 50
19.47015584306663
 51
270.0
  0
CIRCLE
  5
99
330
48
100
AcDbEntity
  8
konin
  6
Continuous
 62
     0
 48
0.0
100
AcDbCircle
 10
28.64620387653394
 20
0.848063944849045
 30
0.0
 40
0.84375
  0
LINE
  5
9A
330
48
100
AcDbEntity
  8
konin
  6
Continuous
 62
   250
 48
0.0
100
AcDbLine
 10
27.04742419818922
 20
1.69183111098674
 30
0.0
 11
27.04742419818922
 21
1.12933111098674
 31
0.0
210
0.0
220
0.0
230
0.0
  0
LINE
  5
9B
330
48
100
AcDbEntity
  8
konin
  6
Continuous
 62
   250
 48
0.0
100
AcDbLine
 10
25.54742419818921
 20
1.691828249963791
 30
0.0
 11
25.54742419818921
 21
1.129328249963791
 31
0.0
210
0.0
220
0.0
230
0.0
  0
ARC
  5
9C
330
48
100
AcDbEntity
  8
konin
  6
Continuous
 62
     0
 48
0.0
100
AcDbCircle
 10
28.64620387653394
 20
0.848063944849045
 30
0.0
 40
0.8437565312235223
100
AcDbArc
 50
19.47230022158215
 51
160.5276997784178
  0
LINE
  5
9D
330
48
100
AcDbEntity
  8
konin
  6
Continuous
 62
   250
 48
0.0
100
AcDbLine
 10
28.64620387653394
 20
0.004313944849045
 30
0.0
 11
23.94863879779859
 21
0.0043282499637911
 31
0.0
210
0.0
220
0.0
230
0.0
  0
LINE
  5
9E
330
48
100
AcDbEntity
  8
konin
  6
Continuous
 62
   250
 48
0.0
100
AcDbLine
 10
26.29742419818922
 20
1.129328249963791
 30
0.0
 11
27.85070788959547
 21
1.12933111098674
 31
0.0
210
0.0
220
0.0
230
0.0
  0
LINE
  5
9F
330
48
100
AcDbEntity
  8
konin
  6
Continuous
 62
   250
 48
0.0
100
AcDbLine
 10
26.29742419818922
 20
1.129328249963791
 30
0.0
 11
24.74413478473707
 21
1.129328249963791
 31
0.0
210
0.0
220
0.0
230
0.0
  0
LINE
  5
A0
330
48
100
AcDbEntity
  8
konin
  6
Continuous
 62
   250
 48
0.0
100
AcDbLine
 10
24.92375531596684
 20
0.8437659242479327
 30
0.0
 11
24.92375531596684
 21
0.0000159242479327
 31
0.0
210
0.0
220
0.0
230
0.0
  0
LINE
  5
A1
330
48
100
AcDbEntity
  8
konin
  6
Continuous
 62
   250
 48
0.0
100
AcDbLine
 10
24.92375531596684
 20
0.8437659242479327
 30
0.0
 11
24.92375531596684
 21
1.125015924247932
 31
0.0
210
0.0
220
0.0
230
0.0
  0
LINE
  5
A2
330
48
100
AcDbEntity
  8
konin
  6
Continuous
 62
   250
 48
0.0
100
AcDbLine
 10
27.70633494953199
 20
0.848063944849045
 30
0.0
 11
27.70633494953199
 21
0.004313944849045
 31
0.0
210
0.0
220
0.0
230
0.0
  0
LINE
  5
A3
330
48
100
AcDbEntity
  8
konin
  6
Continuous
 62
   250
 48
0.0
100
AcDbLine
 10
27.70633494953199
 20
0.848063944849045
 30
0.0
 11
27.70633494953199
 21
1.129313944849045
 31
0.0
210
0.0
220
0.0
230
0.0
  0
CIRCLE
  5
A4
330
48
100
AcDbEntity
  8
konin
  6
Continuous
 62
     0
 48
0.0
100
AcDbCircle
 10
28.64620387653394
 20
0.848063944849045
 30
0.0
 40
0.46875
  0
CIRCLE
  5
A5
330
48
100
AcDbEntity
  8
konin
  6
Continuous
 62
     0
 48
0.0
100
AcDbCircle
 10
28.64620387653394
 20
0.848063944849045
 30
0.0
 40
0.46875
  0
LINE
  5
A6
330
48
100
AcDbEntity
  8
konin
  6
Continuous
 62
   250
 48
0.0
100
AcDbLine
 10
26.29742419818922
 20
1.691828249963791
 30
0.0
 11
27.04742419818922
 21
1.69183111098674
 31
0.0
210
0.0
220
0.0
230
0.0
  0
LINE
  5
A7
330
48
100
AcDbEntity
  8
konin
  6
Continuous
 62
   250
 48
0.0
100
AcDbLine
 10
26.29742419818922
 20
1.691828249963791
 30
0.0
 11
25.54742419818921
 21
1.691828249963791
 31
0.0
210
0.0
220
0.0
230
0.0
  0
LINE
  5
A8
330
48
100
AcDbEntity
  8
konin
  6
Continuous
 62
   250
 48
0.0
100
AcDbLine
 10
35.09816153143367
 20
1.69183111098674
 30
0.0
 11
36.56134722477009
 21
1.69183111098674
 31
0.0
210
0.0
220
0.0
230
0.0
  0
LINE
  5
A9
330
48
100
AcDbEntity
  8
konin
  6
Continuous
 62
   250
 48
0.0
100
AcDbLine
 10
35.99096477130933
 20
2.270970820459396
 30
0.0
 11
35.26651942829175
 21
2.46508550551799
 31
0.0
210
0.0
220
0.0
230
0.0
  0
LINE
  5
AA
330
48
100
AcDbEntity
  8
konin
  6
Continuous
 62
   250
 48
0.0
100
AcDbLine
 10
35.69255435565992
 20
1.12933111098674
 30
0.0
 11
34.13926494220777
 21
1.129313944849045
 31
0.0
210
0.0
220
0.0
230
0.0
  0
LINE
  5
AB
330
48
100
AcDbEntity
  8
konin
  6
Continuous
 62
   250
 48
0.0
100
AcDbLine
 10
38.04133403400465
 20
0.004313944849045
 30
0.0
 11
33.34376895526929
 21
0.0043311109867403
 31
0.0
210
0.0
220
0.0
230
0.0
  0
LINE
  5
AC
330
48
100
AcDbEntity
  8
konin
  6
Continuous
 62
   250
 48
0.0
100
AcDbLine
 10
34.94255435565992
 20
1.69183111098674
 30
0.0
 11
34.94255435565992
 21
1.12933111098674
 31
0.0
210
0.0
220
0.0
230
0.0
  0
ARC
  5
AD
330
48
100
AcDbEntity
  8
konin
  6
Continuous
 62
     0
 48
0.0
100
AcDbCircle
 10
33.34376895526929
 20
0.8480811109867403
 30
0.0
 40
0.8437500000000408
100
AcDbArc
 50
19.47015584306663
 51
270.0
  0
CIRCLE
  5
AE
330
48
100
AcDbEntity
  8
konin
  6
Continuous
 62
     0
 48
0.0
100
AcDbCircle
 10
33.34376895526929
 20
0.8480811109867403
 30
0.0
 40
0.84375
  0
ARC
  5
AF
330
48
100
AcDbEntity
  8
konin
  6
Continuous
 62
     0
 48
0.0
100
AcDbCircle
 10
33.34376895526929
 20
0.8480811109867403
 30
0.0
 40
0.8437450871427007
100
AcDbArc
 50
19.47010218554521
 51
160.5298978144548
  0
LINE
  5
B0
330
48
100
AcDbEntity
  8
konin
  6
Continuous
 62
   250
 48
0.0
100
AcDbLine
 10
31.74498927692457
 20
1.691813944849045
 30
0.0
 11
31.74498927692457
 21
1.129313944849045
 31
0.0
210
0.0
220
0.0
230
0.0
  0
LINE
  5
B1
330
48
100
AcDbEntity
  8
konin
  6
Continuous
 62
   250
 48
0.0
100
AcDbLine
 10
30.24498927692457
 20
1.691813944849045
 30
0.0
 11
30.24498927692457
 21
1.129313944849045
 31
0.0
210
0.0
220
0.0
230
0.0
  0
LINE
  5
B2
330
48
100
AcDbEntity
  8
konin
  6
Continuous
 62
   250
 48
0.0
100
AcDbLine
 10
30.99498927692457
 20
1.129313944849045
 30
0.0
 11
32.54827296833082
 21
1.129313944849045
 31
0.0
210
0.0
220
0.0
230
0.0
  0
LINE
  5
B3
330
48
100
AcDbEntity
  8
konin
  6
Continuous
 62
   250
 48
0.0
100
AcDbLine
 10
32.40508449176832
 20
0.848063944849045
 30
0.0
 11
32.40508449176832
 21
0.004313944849045
 31
0.0
210
0.0
220
0.0
230
0.0
  0
LINE
  5
B4
330
48
100
AcDbEntity
  8
konin
  6
Continuous
 62
   250
 48
0.0
100
AcDbLine
 10
32.40508449176832
 20
0.848063944849045
 30
0.0
 11
32.40508449176832
 21
1.129313944849045
 31
0.0
210
0.0
220
0.0
230
0.0
  0
CIRCLE
  5
B5
330
48
100
AcDbEntity
  8
konin
  6
Continuous
 62
     0
 48
0.0
100
AcDbCircle
 10
33.34376895526929
 20
0.8480811109867403
 30
0.0
 40
0.46875
  0
CIRCLE
  5
B6
330
48
100
AcDbEntity
  8
konin
  6
Continuous
 62
     0
 48
0.0
100
AcDbCircle
 10
33.34376895526929
 20
0.8480811109867403
 30
0.0
 40
0.46875
  0
LINE
  5
B7
330
48
100
AcDbEntity
  8
konin
  6
Continuous
 62
   250
 48
0.0
100
AcDbLine
 10
30.99498927692457
 20
1.691813944849045
 30
0.0
 11
31.74498927692457
 21
1.691813944849045
 31
0.0
210
0.0
220
0.0
230
0.0
  0
LINE
  5
B8
330
48
100
AcDbEntity
  8
konin
  6
Continuous
 62
   250
 48
0.0
100
AcDbLine
 10
30.99498927692457
 20
1.691813944849045
 30
0.0
 11
30.24498927692457
 21
1.691813944849045
 31
0.0
210
0.0
220
0.0
230
0.0
  0
LINE
  5
B9
330
48
100
AcDbEntity
  8
konin
  6
Continuous
 62
   250
 48
0.0
100
AcDbLine
 10
35.12093341449781
 20
1.921771525415451
 30
0.0
 11
35.05953120615817
 21
1.739457107453333
 31
0.0
210
0.0
220
0.0
230
0.0
  0
LINE
  5
BA
330
48
100
AcDbEntity
  8
konin
  6
Continuous
 62
   250
 48
0.0
100
AcDbLine
 10
34.94255435565992
 20
1.69183111098674
 30
0.0
 11
35.09816153143367
 21
1.69183111098674
 31
0.0
210
0.0
220
0.0
230
0.0
  0
LINE
  5
BB
330
48
100
AcDbEntity
  8
konin
  6
Continuous
 62
   250
 48
0.0
100
AcDbLine
 10
35.26651942829175
 20
2.46508550551799
 30
0.0
 11
35.12093341449781
 21
1.921771525415451
 31
0.0
210
0.0
220
0.0
230
0.0
  0
ARC
  5
BC
330
48
100
AcDbEntity
  8
konin
  6
Continuous
 62
     0
 48
0.0
100
AcDbCircle
 10
33.50383746723219
 20
2.06390142348674
 30
0.0
 40
0.8437507754809001
100
AcDbArc
 50
4.469870722610774
 51
115.5286304215286
  0
ARC
  5
BD
330
48
100
AcDbEntity
  8
konin
  6
Continuous
 62
     0
 48
0.0
100
AcDbCircle
 10
33.50383746723219
 20
2.06390142348674
 30
0.0
 40
0.8437507754809001
100
AcDbArc
 50
4.469870722610774
 51
115.5286304215286
  0
LINE
  5
BE
330
48
100
AcDbEntity
  8
konin
  6
Continuous
 62
   250
 48
0.0
100
AcDbLine
 10
35.12093341449781
 20
1.921771525415451
 30
0.0
 11
34.34501826862379
 21
2.129659174951584
 31
0.0
210
0.0
220
0.0
230
0.0
  0
LINE
  5
BF
330
48
100
AcDbEntity
  8
konin
  6
Continuous
 62
   250
 48
0.0
100
AcDbLine
 10
36.56134722477009
 20
1.69183111098674
 30
0.0
 11
36.56134722477009
 21
1.179957022088075
 31
0.0
210
0.0
220
0.0
230
0.0
  0
LINE
  5
C0
330
48
100
AcDbEntity
  8
konin
  6
Continuous
 62
   250
 48
0.0
100
AcDbLine
 10
40.23729503253981
 20
1.727639674219162
 30
0.0
 11
38.7369345436482
 21
1.325637339624435
 31
0.0
210
0.0
220
0.0
230
0.0
  0
ARC
  5
C1
330
48
100
AcDbEntity
  8
konin
  6
Continuous
 62
     0
 48
0.0
100
AcDbCircle
 10
38.04133403400465
 20
0.848063944849045
 30
0.0
 40
0.8437518157666008
100
AcDbArc
 50
34.47146086420203
 51
284.9997975606535
  0
ARC
  5
C2
330
48
100
AcDbEntity
  8
konin
  6
Continuous
 62
     0
 48
0.0
100
AcDbCircle
 10
38.04133403400465
 20
0.848063944849045
 30
0.0
 40
0.8437518157666008
100
AcDbArc
 50
34.47146086420203
 51
284.9997975606535
  0
LINE
  5
C3
330
48
100
AcDbEntity
  8
konin
  6
Continuous
 62
   250
 48
0.0
100
AcDbLine
 10
36.56982410053297
 20
1.533542155298263
 30
0.0
 11
37.34573924640699
 21
1.32562017348674
 31
0.0
210
0.0
220
0.0
230
0.0
  0
ARC
  5
C4
330
48
100
AcDbEntity
  8
konin
  6
Continuous
 62
     0
 48
0.0
100
AcDbCircle
 10
38.04133403400465
 20
0.848063944849045
 30
0.0
 40
0.843756531223512
100
AcDbArc
 50
34.4714011071434
 51
160.5276997784178
  0
CIRCLE
  5
C5
330
48
100
AcDbEntity
  8
konin
  6
Continuous
 62
     0
 48
0.0
100
AcDbCircle
 10
38.04133403400465
 20
0.848063944849045
 30
0.0
 40
0.46875
  0
CIRCLE
  5
C6
330
48
100
AcDbEntity
  8
konin
  6
Continuous
 62
     0
 48
0.0
100
AcDbCircle
 10
38.04133403400465
 20
0.848063944849045
 30
0.0
 40
0.46875
  0
CIRCLE
  5
C7
330
48
100
AcDbEntity
  8
konin
  6
Continuous
 62
     0
 48
0.0
100
AcDbCircle
 10
38.04133403400465
 20
0.848063944849045
 30
0.0
 40
0.46875
  0
LINE
  5
C8
330
48
100
AcDbEntity
  8
konin
  6
Continuous
 62
   250
 48
0.0
100
AcDbLine
 10
35.99477990303728
 20
1.129327770948933
 30
0.0
 11
37.24584376911207
 21
1.129313944849045
 31
0.0
210
0.0
220
0.0
230
0.0
  0
LINE
  5
C9
330
48
100
AcDbEntity
  8
konin
  6
Continuous
 62
   250
 48
0.0
100
AcDbLine
 10
35.69255435565992
 20
1.12933111098674
 30
0.0
 11
35.99477990303728
 21
1.129327770948933
 31
0.0
210
0.0
220
0.0
230
0.0
  0
LINE
  5
CA
330
48
100
AcDbEntity
  8
konin
  6
Continuous
 62
   250
 48
0.0
100
AcDbLine
 10
37.10383403400465
 20
0.848063944849045
 30
0.0
 11
37.10383403400465
 21
0.004313944849045
 31
0.0
210
0.0
220
0.0
230
0.0
  0
LINE
  5
CB
330
48
100
AcDbEntity
  8
konin
  6
Continuous
 62
   250
 48
0.0
100
AcDbLine
 10
37.10383403400465
 20
0.848063944849045
 30
0.0
 11
37.10383403400465
 21
1.129313944849045
 31
0.0
210
0.0
220
0.0
230
0.0
  0
ARC
  5
CC
330
48
100
AcDbEntity
  8
konin
  6
Continuous
 62
     0
 48
0.0
100
AcDbCircle
 10
38.04133403400465
 20
0.848063944849045
 30
0.0
 40
0.8437518157666588
100
AcDbArc
 50
270.0
 51
284.9997975606529
  0
LINE
  5
CD
330
48
100
AcDbEntity
  8
konin
  6
Continuous
 62
   250
 48
0.0
100
AcDbLine
 10
36.71541011432691
 20
2.076856135400802
 30
0.0
 11
36.56982410053297
 21
1.533542155298263
 31
0.0
210
0.0
220
0.0
230
0.0
  0
LINE
  5
CE
330
48
100
AcDbEntity
  8
konin
  6
Continuous
 62
   250
 48
0.0
100
AcDbLine
 10
35.99096477130933
 20
2.270970820459396
 30
0.0
 11
36.71541011432691
 21
2.076856135400802
 31
0.0
210
0.0
220
0.0
230
0.0
  0
LINE
  5
CF
330
48
100
AcDbEntity
  8
konin
  6
Continuous
 62
   250
 48
0.0
100
AcDbLine
 10
40.81615436176344
 20
2.465102671655685
 30
0.0
 11
40.96174037555738
 21
1.921754359277755
 31
0.0
210
0.0
220
0.0
230
0.0
  0
LINE
  5
D0
330
48
100
AcDbEntity
  8
konin
  6
Continuous
 62
   250
 48
0.0
100
AcDbLine
 10
40.09170901874585
 20
2.270987986597091
 30
0.0
 11
40.81615436176344
 21
2.465102671655685
 31
0.0
210
0.0
220
0.0
230
0.0
  0
LINE
  5
D1
330
48
100
AcDbEntity
  8
konin
  6
Continuous
 62
   250
 48
0.0
100
AcDbLine
 10
39.36726367572828
 20
2.076873301538498
 30
0.0
 11
39.51284968952222
 21
1.533524989160568
 31
0.0
210
0.0
220
0.0
230
0.0
  0
LINE
  5
D2
330
48
100
AcDbEntity
  8
konin
  6
Continuous
 62
   250
 48
0.0
100
AcDbLine
 10
40.09170901874585
 20
2.270987986597091
 30
0.0
 11
39.36726367572828
 21
2.076873301538498
 31
0.0
210
0.0
220
0.0
230
0.0
  0
ARC
  5
D3
330
48
100
AcDbEntity
  8
konin
  6
Continuous
 62
     0
 48
0.0
100
AcDbCircle
 10
42.578836322823
 20
2.063884257349045
 30
0.0
 40
0.8437367489025017
100
AcDbArc
 50
64.47138529443963
 51
315.0008242771521
  0
LINE
  5
D4
330
48
100
AcDbEntity
  8
konin
  6
Continuous
 62
   250
 48
0.0
100
AcDbLine
 10
41.67328250507398
 20
1.821258067163498
 30
0.0
 11
41.89165866474195
 21
1.006255625757248
 31
0.0
210
0.0
220
0.0
230
0.0
  0
ARC
  5
D5
330
48
100
AcDbEntity
  8
konin
  6
Continuous
 62
     0
 48
0.0
100
AcDbCircle
 10
42.578836322823
 20
2.063884257349045
 30
0.0
 40
0.8437367489025017
100
AcDbArc
 50
64.47138529443963
 51
315.0008242771521
  0
LINE
  5
D6
330
48
100
AcDbEntity
  8
konin
  6
Continuous
 62
   250
 48
0.0
100
AcDbLine
 10
43.17545688251539
 20
1.467280863794357
 30
0.0
 11
46.49713885883374
 21
4.788957118066818
 31
0.0
210
0.0
220
0.0
230
0.0
  0
CIRCLE
  5
D7
330
48
100
AcDbEntity
  8
konin
  6
Continuous
 62
     0
 48
0.0
100
AcDbCircle
 10
42.578836322823
 20
2.063884257349045
 30
0.0
 40
0.46875
  0
LINE
  5
D8
330
48
100
AcDbEntity
  8
konin
  6
Continuous
 62
   250
 48
0.0
100
AcDbLine
 10
41.67328250507398
 20
1.821258067163498
 30
0.0
 11
41.60048663715406
 21
2.092923640283615
 31
0.0
210
0.0
220
0.0
230
0.0
  0
CIRCLE
  5
D9
330
48
100
AcDbEntity
  8
konin
  6
Continuous
 62
     0
 48
0.0
100
AcDbCircle
 10
42.578836322823
 20
2.063884257349045
 30
0.0
 40
0.46875
  0
ARC
  5
DA
330
48
100
AcDbEntity
  8
konin
  6
Continuous
 62
     0
 48
0.0
100
AcDbCircle
 10
31.86968314333563
 20
15.81820185638484
 30
0.0
 40
0.5625000000000476
100
AcDbArc
 50
135.5928109392685
 51
226.1933991405523
  0
LINE
  5
DB
330
48
100
AcDbEntity
  8
konin
  6
Continuous
 62
   250
 48
0.0
100
AcDbLine
 10
43.64305675128981
 20
15.52477979567909
 30
0.0
 11
43.11272609333082
 21
16.05511045363807
 31
0.0
210
0.0
220
0.0
230
0.0
  0
LINE
  5
DC
330
48
100
AcDbEntity
  8
konin
  6
Continuous
 62
   250
 48
0.0
100
AcDbLine
 10
44.04080188373609
 20
15.92254781630897
 30
0.0
 11
45.13914287189527
 21
14.8241896620121
 31
0.0
210
0.0
220
0.0
230
0.0
  0
LINE
  5
DD
330
48
100
AcDbEntity
  8
konin
  6
Continuous
 62
   250
 48
0.0
100
AcDbLine
 10
46.49713885883374
 20
15.05720281508827
 30
0.0
 11
43.17545688251539
 21
18.37887906936073
 31
0.0
210
0.0
220
0.0
230
0.0
  0
LINE
  5
DE
330
48
100
AcDbEntity
  8
konin
  6
Continuous
 62
   250
 48
0.0
100
AcDbLine
 10
32.43961703876539
 20
15.52479696181679
 30
0.0
 11
32.96994769672437
 21
16.05512761977577
 31
0.0
210
0.0
220
0.0
230
0.0
  0
ARC
  5
DF
330
48
100
AcDbEntity
  8
konin
  6
Continuous
 62
     0
 48
0.0
100
AcDbCircle
 10
16.06165757992681
 20
15.81388953066901
 30
0.0
 40
0.5625000000000489
100
AcDbArc
 50
313.8066008594532
 51
44.40718906073807
  0
LINE
  5
E0
330
48
100
AcDbEntity
  8
konin
  6
Continuous
 62
   250
 48
0.0
100
AcDbLine
 10
4.288283971972646
 20
15.52046746996326
 30
0.0
 11
4.81861462993163
 21
16.05079812792225
 31
0.0
210
0.0
220
0.0
230
0.0
  0
LINE
  5
E1
330
48
100
AcDbEntity
  8
konin
  6
Continuous
 62
   250
 48
0.0
100
AcDbLine
 10
3.890538839526357
 20
15.91823549059314
 30
0.0
 11
2.792197851367177
 21
14.81987733629627
 31
0.0
210
0.0
220
0.0
230
0.0
  0
LINE
  5
E2
330
48
100
AcDbEntity
  8
konin
  6
Continuous
 62
   250
 48
0.0
100
AcDbLine
 10
1.4342018644287
 20
15.05289048937244
 30
0.0
 11
4.75588384074706
 21
18.3745667436449
 31
0.0
210
0.0
220
0.0
230
0.0
  0
LINE
  5
E3
330
48
100
AcDbEntity
  8
konin
  6
Continuous
 62
   250
 48
0.0
100
AcDbLine
 10
15.49172368449711
 20
15.52048463610096
 30
0.0
 11
14.96139302653813
 21
16.05081529405994
 31
0.0
210
0.0
220
0.0
230
0.0
  0
ARC
  5
E4
330
48
100
AcDbEntity
  8
konin
  6
Continuous
 62
     0
 48
0.0
100
AcDbCircle
 10
18.08117231588249
 20
7.521513548088293
 30
0.0
 40
0.5625000000000102
100
AcDbArc
 50
253.8066008594523
 51
344.4071890607309
  0
LINE
  5
E5
330
48
100
AcDbEntity
  8
konin
  6
Continuous
 62
   250
 48
0.0
100
AcDbLine
 10
18.33740935878108
 20
8.427493707669341
 30
0.0
 11
17.73776353364098
 21
8.598611898934038
 31
0.0
210
0.0
220
0.0
230
0.0
  0
LINE
  5
E6
330
48
100
AcDbEntity
  8
konin
  6
Continuous
 62
   250
 48
0.0
100
AcDbLine
 10
18.31662067401407
 20
11.3920176397268
 30
0.0
 11
17.73502886028637
 21
11.24909394119157
 31
0.0
210
0.0
220
0.0
230
0.0
  0
ARC
  5
E7
330
48
100
AcDbEntity
  8
konin
  6
Continuous
 62
     0
 48
0.0
100
AcDbCircle
 10
18.08807753327863
 20
12.3053682450844
 30
0.0
 40
0.5624999999999113
100
AcDbArc
 50
14.40718906073088
 51
104.0730850131048
  0
LINE
  5
E8
330
48
100
AcDbEntity
  8
konin
  6
Continuous
 62
   250
 48
0.0
100
AcDbLine
 10
17.73620763225102
 20
11.23055141003258
 30
0.0
 11
18.27954450053715
 21
11.37611453564294
 31
0.0
210
0.0
220
0.0
230
0.0
  0
LINE
  5
E9
330
48
100
AcDbEntity
  8
konin
  6
Continuous
 62
   250
 48
0.0
100
AcDbLine
 10
17.73620763225102
 20
8.592837999138069
 30
0.0
 11
18.27954450053715
 21
8.447240541252327
 31
0.0
210
0.0
220
0.0
230
0.0
  0
LINE
  5
EA
330
48
100
AcDbEntity
  8
konin
  6
Continuous
 62
   250
 48
0.0
100
AcDbLine
 10
5.577506689257802
 20
5.231250474724006
 30
0.0
 11
14.20250668925786
 21
5.231250474724006
 31
0.0
210
0.0
220
0.0
230
0.0
  0
LINE
  5
EB
330
48
100
AcDbEntity
  8
konin
  6
Continuous
 62
   250
 48
0.0
100
AcDbLine
 10
14.20250668925786
 20
14.606250474724
 30
0.0
 11
5.577506689257802
 21
14.606250474724
 31
0.0
210
0.0
220
0.0
230
0.0
  0
LINE
  5
EC
330
48
100
AcDbEntity
  8
konin
  6
Continuous
 62
   250
 48
0.0
100
AcDbLine
 10
6.140006689257859
 20
6.168750474724006
 30
0.0
 11
9.890006689257859
 21
6.168750474724006
 31
0.0
210
0.0
220
0.0
230
0.0
  0
LINE
  5
ED
330
48
100
AcDbEntity
  8
konin
  6
Continuous
 62
   250
 48
0.0
100
AcDbLine
 10
13.64000668925785
 20
13.668750474724
 30
0.0
 11
6.140006689257859
 21
13.668750474724
 31
0.0
210
0.0
220
0.0
230
0.0
  0
LINE
  5
EE
330
48
100
AcDbEntity
  8
konin
  6
Continuous
 62
   250
 48
0.0
100
AcDbLine
 10
5.202506689257802
 20
14.231250474724
 30
0.0
 11
5.202506689257802
 21
5.606250474724006
 31
0.0
210
0.0
220
0.0
230
0.0
  0
LINE
  5
EF
330
48
100
AcDbEntity
  8
konin
  6
Continuous
 62
   250
 48
0.0
100
AcDbLine
 10
1.215825704760732
 20
5.162889192375374
 30
0.0
 11
0.0000053922607322
 21
9.700391481193733
 31
0.0
210
0.0
220
0.0
230
0.0
  0
ARC
  5
F0
330
48
100
AcDbEntity
  8
konin
  6
Continuous
 62
     0
 48
0.0
100
AcDbCircle
 10
2.030822424121083
 20
5.381248185905647
 30
0.0
 40
0.8437518157666257
100
AcDbArc
 50
194.9997975606533
 51
85.52895199784636
  0
ARC
  5
F1
330
48
100
AcDbEntity
  8
konin
  6
Continuous
 62
     0
 48
0.0
100
AcDbCircle
 10
2.030822424121083
 20
5.381248185905647
 30
0.0
 40
0.8437518157666257
100
AcDbArc
 50
194.9997975606533
 51
85.52895199784636
  0
LINE
  5
F2
330
48
100
AcDbEntity
  8
konin
  6
Continuous
 62
   250
 48
0.0
100
AcDbLine
 10
3.757953314013661
 20
4.847364137443733
 30
0.0
 11
3.360208181567372
 21
4.449630449089241
 31
0.0
210
0.0
220
0.0
230
0.0
  0
LINE
  5
F3
330
48
100
AcDbEntity
  8
konin
  6
Continuous
 62
   250
 48
0.0
100
AcDbLine
 10
3.890538839526357
 20
3.919299791130256
 30
0.0
 11
2.792197851367177
 21
5.017623613151741
 31
0.0
210
0.0
220
0.0
230
0.0
  0
CIRCLE
  5
F4
330
48
100
AcDbEntity
  8
konin
  6
Continuous
 62
     0
 48
0.0
100
AcDbCircle
 10
2.030822424121083
 20
5.381248185905647
 30
0.0
 40
0.46875
  0
LINE
  5
F5
330
48
100
AcDbEntity
  8
konin
  6
Continuous
 62
   250
 48
0.0
100
AcDbLine
 10
2.693738607592763
 20
4.718354890617561
 30
0.0
 11
2.892608312792958
 21
4.91721315172596
 31
0.0
210
0.0
220
0.0
230
0.0
  0
LINE
  5
F6
330
48
100
AcDbEntity
  8
konin
  6
Continuous
 62
   250
 48
0.0
100
AcDbLine
 10
2.693738607592763
 20
4.718354890617561
 30
0.0
 11
2.097112325854482
 21
4.121734330925178
 31
0.0
210
0.0
220
0.0
230
0.0
  0
CIRCLE
  5
F7
330
48
100
AcDbEntity
  8
konin
  6
Continuous
 62
     0
 48
0.0
100
AcDbCircle
 10
2.030822424121083
 20
5.381248185905647
 30
0.0
 40
0.46875
  0
ARC
  5
F8
330
48
100
AcDbEntity
  8
konin
  6
Continuous
 62
     0
 48
0.0
100
AcDbCircle
 10
5.577506689257802
 20
5.606250474724006
 30
0.0
 40
0.375
100
AcDbArc
 50
180.0
 51
270.0
  0
LINE
  5
F9
330
48
100
AcDbEntity
  8
konin
  6
Continuous
 62
   250
 48
0.0
100
AcDbLine
 10
4.288283971972646
 20
4.317033479484749
 30
0.0
 11
3.757953314013661
 21
4.847364137443733
 31
0.0
210
0.0
220
0.0
230
0.0
  0
LINE
  5
FA
330
48
100
AcDbEntity
  8
konin
  6
Continuous
 62
   250
 48
0.0
100
AcDbLine
 10
4.81861462993163
 20
3.786702821525764
 30
0.0
 11
4.420869497485341
 21
3.388969133171272
 31
0.0
210
0.0
220
0.0
230
0.0
  0
LINE
  5
FB
330
48
100
AcDbEntity
  8
konin
  6
Continuous
 62
   250
 48
0.0
100
AcDbLine
 10
4.288283971972646
 20
4.317033479484749
 30
0.0
 11
4.81861462993163
 21
3.786702821525764
 31
0.0
210
0.0
220
0.0
230
0.0
  0
LINE
  5
FC
330
48
100
AcDbEntity
  8
konin
  6
Continuous
 62
   250
 48
0.0
100
AcDbLine
 10
3.890538839526357
 20
3.919299791130256
 30
0.0
 11
4.988879827685536
 21
2.820941636833381
 31
0.0
210
0.0
220
0.0
230
0.0
  0
LINE
  5
FD
330
48
100
AcDbEntity
  8
konin
  6
Continuous
 62
   250
 48
0.0
100
AcDbLine
 10
0.0000053922607322
 20
10.13714380052967
 30
0.0
 11
1.215825704760732
 21
14.67464608934803
 31
0.0
210
0.0
220
0.0
230
0.0
  0
ARC
  5
FE
330
48
100
AcDbEntity
  8
konin
  6
Continuous
 62
     0
 48
0.0
100
AcDbCircle
 10
0.8150021116210837
 20
9.918750474724006
 30
0.0
 40
0.8437532967396556
100
AcDbArc
 50
164.9998271185097
 51
55.52945947940521
  0
CIRCLE
  5
FF
330
48
100
AcDbEntity
  8
konin
  6
Continuous
 62
     0
 48
0.0
100
AcDbCircle
 10
0.8150021116210837
 20
9.918750474724006
 30
0.0
 40
0.46875
  0
LINE
  5
100
330
48
100
AcDbEntity
  8
konin
  6
Continuous
 62
   250
 48
0.0
100
AcDbLine
 10
1.057645467944325
 20
9.013213823112678
 30
0.0
 11
0.2426487485839743
 21
8.794814775261116
 31
0.0
210
0.0
220
0.0
230
0.0
  0
ARC
  5
101
330
48
100
AcDbEntity
  8
konin
  6
Continuous
 62
     0
 48
0.0
100
AcDbCircle
 10
0.8150021116210837
 20
9.918750474724006
 30
0.0
 40
0.8437518157666257
100
AcDbArc
 50
165.0002024393466
 51
55.52923956028681
  0
CIRCLE
  5
102
330
48
100
AcDbEntity
  8
konin
  6
Continuous
 62
     0
 48
0.0
100
AcDbCircle
 10
0.8150021116210837
 20
9.918750474724006
 30
0.0
 40
0.46875
  0
LINE
  5
103
330
48
100
AcDbEntity
  8
konin
  6
Continuous
 62
   250
 48
0.0
100
AcDbLine
 10
6.140006689257859
 20
13.668750474724
 30
0.0
 11
6.140006689257859
 21
6.168750474724006
 31
0.0
210
0.0
220
0.0
230
0.0
  0
LINE
  5
104
330
48
100
AcDbEntity
  8
konin
  6
Continuous
 62
   250
 48
0.0
100
AcDbLine
 10
1.6945778409912
 20
12.11472291735096
 30
0.0
 11
1.292558340258779
 21
10.61436242845935
 31
0.0
210
0.0
220
0.0
230
0.0
  0
LINE
  5
105
330
48
100
AcDbEntity
  8
konin
  6
Continuous
 62
   250
 48
0.0
100
AcDbLine
 10
1.057645467944325
 20
9.013213823112678
 30
0.0
 11
1.329311041064443
 21
9.085986802849006
 31
0.0
210
0.0
220
0.0
230
0.0
  0
LINE
  5
106
330
48
100
AcDbEntity
  8
konin
  6
Continuous
 62
   250
 48
0.0
100
AcDbLine
 10
2.043800024218739
 20
8.592820833000374
 30
0.0
 11
1.500468877978505
 21
8.447240541252327
 31
0.0
210
0.0
220
0.0
230
0.0
  0
LINE
  5
107
330
48
100
AcDbEntity
  8
konin
  6
Continuous
 62
   250
 48
0.0
100
AcDbLine
 10
2.237914709277333
 20
7.868381212028694
 30
0.0
 11
2.043800024218739
 21
8.592820833000374
 31
0.0
210
0.0
220
0.0
230
0.0
  0
LINE
  5
108
330
48
100
AcDbEntity
  8
konin
  6
Continuous
 62
   250
 48
0.0
100
AcDbLine
 10
2.432029394335927
 20
7.143935869011116
 30
0.0
 11
1.888692526049794
 21
6.998367021354866
 31
0.0
210
0.0
220
0.0
230
0.0
  0
LINE
  5
109
330
48
100
AcDbEntity
  8
konin
  6
Continuous
 62
   250
 48
0.0
100
AcDbLine
 10
2.237914709277333
 20
7.868381212028694
 30
0.0
 11
2.432029394335927
 21
7.143935869011116
 31
0.0
210
0.0
220
0.0
230
0.0
  0
LINE
  5
10A
330
48
100
AcDbEntity
  8
konin
  6
Continuous
 62
   250
 48
0.0
100
AcDbLine
 10
1.6945778409912
 20
7.722812364372444
 30
0.0
 11
1.292558340258779
 21
9.223172853264046
 31
0.0
210
0.0
220
0.0
230
0.0
  0
LINE
  5
10B
330
48
100
AcDbEntity
  8
konin
  6
Continuous
 62
   250
 48
0.0
100
AcDbLine
 10
1.6945778409912
 20
7.722812364372444
 30
0.0
 11
2.096603063769521
 21
6.222434709343147
 31
0.0
210
0.0
220
0.0
230
0.0
  0
LINE
  5
10C
330
48
100
AcDbEntity
  8
konin
  6
Continuous
 62
   250
 48
0.0
100
AcDbLine
 10
3.757953314013661
 20
14.99013681200428
 30
0.0
 11
3.360208181567372
 21
15.38790483263416
 31
0.0
210
0.0
220
0.0
230
0.0
  0
CIRCLE
  5
10D
330
48
100
AcDbEntity
  8
konin
  6
Continuous
 62
     0
 48
0.0
100
AcDbCircle
 10
2.030822424121083
 20
14.45625276354236
 30
0.0
 40
0.8437471825310796
  0
ARC
  5
10E
330
48
100
AcDbEntity
  8
konin
  6
Continuous
 62
     0
 48
0.0
100
AcDbCircle
 10
2.030822424121083
 20
14.45625276354236
 30
0.0
 40
0.8437477691108361
100
AcDbArc
 50
133.149749909462
 51
25.52863042152941
  0
ARC
  5
10F
330
48
100
AcDbEntity
  8
konin
  6
Continuous
 62
     0
 48
0.0
100
AcDbCircle
 10
2.030822424121083
 20
14.45625276354236
 30
0.0
 40
0.8437518157666257
100
AcDbArc
 50
165.0002024393466
 51
25.52863042153219
  0
CIRCLE
  5
110
330
48
100
AcDbEntity
  8
konin
  6
Continuous
 62
     0
 48
0.0
100
AcDbCircle
 10
2.030822424121083
 20
14.45625276354236
 30
0.0
 40
0.46875
  0
LINE
  5
111
330
48
100
AcDbEntity
  8
konin
  6
Continuous
 62
   250
 48
0.0
100
AcDbLine
 10
1.788179067797841
 20
13.55071038988514
 30
0.0
 11
2.059844640917958
 21
13.47790307787342
 31
0.0
210
0.0
220
0.0
230
0.0
  0
LINE
  5
112
330
48
100
AcDbEntity
  8
konin
  6
Continuous
 62
   250
 48
0.0
100
AcDbLine
 10
1.788179067797841
 20
13.55071038988514
 30
0.0
 11
0.9731823484374899
 21
13.76907510546131
 31
0.0
210
0.0
220
0.0
230
0.0
  0
LINE
  5
113
330
48
100
AcDbEntity
  8
konin
  6
Continuous
 62
   250
 48
0.0
100
AcDbLine
 10
2.432029394335927
 20
12.69356508043689
 30
0.0
 11
1.888692526049794
 21
12.83916826036853
 31
0.0
210
0.0
220
0.0
230
0.0
  0
LINE
  5
114
330
48
100
AcDbEntity
  8
konin
  6
Continuous
 62
   250
 48
0.0
100
AcDbLine
 10
2.237914709277333
 20
11.96911973741932
 30
0.0
 11
2.432029394335927
 21
12.69356508043689
 31
0.0
210
0.0
220
0.0
230
0.0
  0
LINE
  5
115
330
48
100
AcDbEntity
  8
konin
  6
Continuous
 62
   250
 48
0.0
100
AcDbLine
 10
2.043800024218739
 20
11.24468011644764
 30
0.0
 11
1.500468877978505
 21
11.39026040819568
 31
0.0
210
0.0
220
0.0
230
0.0
  0
LINE
  5
116
330
48
100
AcDbEntity
  8
konin
  6
Continuous
 62
   250
 48
0.0
100
AcDbLine
 10
2.237914709277333
 20
11.96911973741932
 30
0.0
 11
2.043800024218739
 21
11.24468011644764
 31
0.0
210
0.0
220
0.0
230
0.0
  0
LINE
  5
117
330
48
100
AcDbEntity
  8
konin
  6
Continuous
 62
   250
 48
0.0
100
AcDbLine
 10
1.6945778409912
 20
12.11472291735096
 30
0.0
 11
2.096603063769521
 21
13.61506624010486
 31
0.0
210
0.0
220
0.0
230
0.0
  0
ARC
  5
118
330
48
100
AcDbEntity
  8
konin
  6
Continuous
 62
     0
 48
0.0
100
AcDbCircle
 10
2.030822424121083
 20
14.45625276354236
 30
0.0
 40
0.8437518157666257
100
AcDbArc
 50
165.0002024393466
 51
25.52863042153219
  0
CIRCLE
  5
119
330
48
100
AcDbEntity
  8
konin
  6
Continuous
 62
     0
 48
0.0
100
AcDbCircle
 10
2.030822424121083
 20
14.45625276354236
 30
0.0
 40
0.46875
  0
ARC
  5
11A
330
48
100
AcDbEntity
  8
konin
  6
Continuous
 62
     0
 48
0.0
100
AcDbCircle
 10
5.577506689257802
 20
14.231250474724
 30
0.0
 40
0.375
100
AcDbArc
 50
90.0
 51
180.0
  0
LINE
  5
11B
330
48
100
AcDbEntity
  8
konin
  6
Continuous
 62
   250
 48
0.0
100
AcDbLine
 10
4.288283971972646
 20
15.52046746996326
 30
0.0
 11
3.757953314013661
 21
14.99013681200428
 31
0.0
210
0.0
220
0.0
230
0.0
  0
LINE
  5
11C
330
48
100
AcDbEntity
  8
konin
  6
Continuous
 62
   250
 48
0.0
100
AcDbLine
 10
14.57750668925785
 20
5.606250474724006
 30
0.0
 11
14.57750668925785
 21
9.918750474724006
 31
0.0
210
0.0
220
0.0
230
0.0
  0
ARC
  5
11D
330
48
100
AcDbEntity
  8
konin
  6
Continuous
 62
     0
 48
0.0
100
AcDbCircle
 10
17.74918523234868
 20
5.381265352043342
 30
0.0
 40
0.8437319169754802
100
AcDbArc
 50
108.6342552102887
 51
205.5286068473948
  0
ARC
  5
11E
330
48
100
AcDbEntity
  8
konin
  6
Continuous
 62
     0
 48
0.0
100
AcDbCircle
 10
17.74918523234868
 20
5.381265352043342
 30
0.0
 40
0.8437313559772372
100
AcDbArc
 50
94.47115402114647
 51
205.5286068473983
  0
LINE
  5
11F
330
48
100
AcDbEntity
  8
konin
  6
Continuous
 62
   250
 48
0.0
100
AcDbLine
 10
15.37920047308984
 20
3.357722278541231
 30
0.0
 11
14.96462901249157
 21
3.789933714594937
 31
0.0
210
0.0
220
0.0
230
0.0
  0
LINE
  5
120
330
48
100
AcDbEntity
  8
konin
  6
Continuous
 62
   250
 48
0.0
100
AcDbLine
 10
14.96139302653813
 20
3.78671998766346
 30
0.0
 11
15.35913815898442
 21
3.388951967033577
 31
0.0
210
0.0
220
0.0
230
0.0
  0
LINE
  5
121
330
48
100
AcDbEntity
  8
konin
  6
Continuous
 62
   250
 48
0.0
100
AcDbLine
 10
15.49172368449711
 20
4.317050645622444
 30
0.0
 11
14.96139302653813
 21
3.78671998766346
 31
0.0
210
0.0
220
0.0
230
0.0
  0
LINE
  5
122
330
48
100
AcDbEntity
  8
konin
  6
Continuous
 62
   250
 48
0.0
100
AcDbLine
 10
15.35913815898442
 20
3.388951967033577
 30
0.0
 11
14.79112782878422
 21
2.820958802971077
 31
0.0
210
0.0
220
0.0
230
0.0
  0
ARC
  5
123
330
48
100
AcDbEntity
  8
konin
  6
Continuous
 62
     0
 48
0.0
100
AcDbCircle
 10
14.20250668925786
 20
5.606250474724006
 30
0.0
 40
0.375
100
AcDbArc
 50
270.0
 51
0.0
  0
ARC
  5
124
330
48
100
AcDbEntity
  8
konin
  6
Continuous
 62
     0
 48
0.0
100
AcDbCircle
 10
15.78514574520283
 20
3.747099584054993
 30
0.0
 40
0.5625000000000498
100
AcDbArc
 50
223.8066008594491
 51
314.4071890607319
  0
LINE
  5
125
330
48
100
AcDbEntity
  8
konin
  6
Continuous
 62
   250
 48
0.0
100
AcDbLine
 10
16.44952478183046
 20
3.610480248973843
 30
0.0
 11
16.17875679750994
 21
3.345258086070927
 31
0.0
210
0.0
220
0.0
230
0.0
  0
LINE
  5
126
330
48
100
AcDbEntity
  8
konin
  6
Continuous
 62
   250
 48
0.0
100
AcDbLine
 10
16.46004361353408
 20
4.403582896127559
 30
0.0
 11
16.02629419132188
 21
4.851598509382469
 31
0.0
210
0.0
220
0.0
230
0.0
  0
ARC
  5
127
330
48
100
AcDbEntity
  8
konin
  6
Continuous
 62
     0
 48
0.0
100
AcDbCircle
 10
16.05591372952369
 20
4.012321746957596
 30
0.0
 40
0.5624999999998818
100
AcDbArc
 50
314.4071890607307
 51
44.07308501310853
  0
LINE
  5
128
330
48
100
AcDbEntity
  8
konin
  6
Continuous
 62
   250
 48
0.0
100
AcDbLine
 10
16.0220543424561
 20
4.847381303581428
 30
0.0
 11
16.41979947490239
 21
4.449613282951546
 31
0.0
210
0.0
220
0.0
230
0.0
  0
LINE
  5
129
330
48
100
AcDbEntity
  8
konin
  6
Continuous
 62
   250
 48
0.0
100
AcDbLine
 10
15.49172368449711
 20
4.317050645622444
 30
0.0
 11
16.0220543424561
 21
4.847381303581428
 31
0.0
210
0.0
220
0.0
230
0.0
  0
LINE
  5
12A
330
48
100
AcDbEntity
  8
konin
  6
Continuous
 62
   250
 48
0.0
100
AcDbLine
 10
16.41979947490239
 20
4.449613282951546
 30
0.0
 11
16.98780980510258
 21
5.017640779289436
 31
0.0
210
0.0
220
0.0
230
0.0
  0
LINE
  5
12B
330
48
100
AcDbEntity
  8
konin
  6
Continuous
 62
   250
 48
0.0
100
AcDbLine
 10
9.890006689257859
 20
6.168750474724006
 30
0.0
 11
13.64000668925785
 21
6.168750474724006
 31
0.0
210
0.0
220
0.0
230
0.0
  0
LINE
  5
12C
330
48
100
AcDbEntity
  8
konin
  6
Continuous
 62
   250
 48
0.0
100
AcDbLine
 10
14.57750668925785
 20
9.918750474724006
 30
0.0
 11
14.57750668925785
 21
14.231250474724
 31
0.0
210
0.0
220
0.0
230
0.0
  0
LINE
  5
12D
330
48
100
AcDbEntity
  8
konin
  6
Continuous
 62
   250
 48
0.0
100
AcDbLine
 10
13.64000668925785
 20
6.168750474724006
 30
0.0
 11
13.64000668925785
 21
13.668750474724
 31
0.0
210
0.0
220
0.0
230
0.0
  0
LINE
  5
12E
330
48
100
AcDbEntity
  8
konin
  6
Continuous
 62
   250
 48
0.0
100
AcDbLine
 10
17.92430205044337
 20
6.98133027379977
 30
0.0
 11
17.34916691585448
 21
7.1483506269293
 31
0.0
210
0.0
220
0.0
230
0.0
  0
LINE
  5
12F
330
48
100
AcDbEntity
  8
konin
  6
Continuous
 62
   250
 48
0.0
100
AcDbLine
 10
17.34797826213383
 20
7.143953035148811
 30
0.0
 11
17.89131513041996
 21
6.998349855217171
 31
0.0
210
0.0
220
0.0
230
0.0
  0
LINE
  5
130
330
48
100
AcDbEntity
  8
konin
  6
Continuous
 62
   250
 48
0.0
100
AcDbLine
 10
17.54209294719243
 20
7.868398378166389
 30
0.0
 11
17.34797826213383
 21
7.143953035148811
 31
0.0
210
0.0
220
0.0
230
0.0
  0
LINE
  5
131
330
48
100
AcDbEntity
  8
konin
  6
Continuous
 62
   250
 48
0.0
100
AcDbLine
 10
17.54209294719243
 20
7.868398378166389
 30
0.0
 11
17.73620763225102
 21
8.592837999138069
 31
0.0
210
0.0
220
0.0
230
0.0
  0
LINE
  5
132
330
48
100
AcDbEntity
  8
konin
  6
Continuous
 62
   250
 48
0.0
100
AcDbLine
 10
17.89131513041996
 20
6.998349855217171
 30
0.0
 11
17.68341031474614
 21
6.222434709343147
 31
0.0
210
0.0
220
0.0
230
0.0
  0
ARC
  5
133
330
48
100
AcDbEntity
  8
konin
  6
Continuous
 62
     0
 48
0.0
100
AcDbCircle
 10
14.20250668925786
 20
14.231250474724
 30
0.0
 40
0.375
100
AcDbArc
 50
0.0
 51
90.0
  0
LINE
  5
134
330
48
100
AcDbEntity
  8
konin
  6
Continuous
 62
   250
 48
0.0
100
AcDbLine
 10
16.4510348854406
 20
15.40794425855604
 30
0.0
 11
16.0188234493869
 21
14.99337279795786
 31
0.0
210
0.0
220
0.0
230
0.0
  0
LINE
  5
135
330
48
100
AcDbEntity
  8
konin
  6
Continuous
 62
   250
 48
0.0
100
AcDbLine
 10
17.95130038058874
 20
12.85098556565084
 30
0.0
 11
17.34643276711182
 21
12.69935535376573
 31
0.0
210
0.0
220
0.0
230
0.0
  0
LINE
  5
136
330
48
100
AcDbEntity
  8
konin
  6
Continuous
 62
   250
 48
0.0
100
AcDbLine
 10
16.3714341802077
 20
15.34364329384014
 30
0.0
 11
16.0220543424561
 21
14.99015397814197
 31
0.0
210
0.0
220
0.0
230
0.0
  0
LINE
  5
137
330
48
100
AcDbEntity
  8
konin
  6
Continuous
 62
   250
 48
0.0
100
AcDbLine
 10
17.54209294719243
 20
11.95499103100426
 30
0.0
 11
17.73620763225102
 21
11.23055141003258
 31
0.0
210
0.0
220
0.0
230
0.0
  0
LINE
  5
138
330
48
100
AcDbEntity
  8
konin
  6
Continuous
 62
   250
 48
0.0
100
AcDbLine
 10
17.34797826213383
 20
12.67943637402184
 30
0.0
 11
17.89131513041996
 21
12.82500522167809
 31
0.0
210
0.0
220
0.0
230
0.0
  0
LINE
  5
139
330
48
100
AcDbEntity
  8
konin
  6
Continuous
 62
   250
 48
0.0
100
AcDbLine
 10
17.54209294719243
 20
11.95499103100426
 30
0.0
 11
17.34797826213383
 21
12.67943637402184
 31
0.0
210
0.0
220
0.0
230
0.0
  0
ARC
  5
13A
330
48
100
AcDbEntity
  8
konin
  6
Continuous
 62
     0
 48
0.0
100
AcDbCircle
 10
17.74918523234868
 20
14.45626992968006
 30
0.0
 40
0.8437507754809074
100
AcDbArc
 50
154.4713695784705
 51
265.5289368525802
  0
LINE
  5
13B
330
48
100
AcDbEntity
  8
konin
  6
Continuous
 62
   250
 48
0.0
100
AcDbLine
 10
16.0220543424561
 20
14.99015397814197
 30
0.0
 11
16.41979947490239
 21
15.38788766649646
 31
0.0
210
0.0
220
0.0
230
0.0
  0
LINE
  5
13C
330
48
100
AcDbEntity
  8
konin
  6
Continuous
 62
   250
 48
0.0
100
AcDbLine
 10
15.49172368449711
 20
15.52048463610096
 30
0.0
 11
16.0220543424561
 21
14.99015397814197
 31
0.0
210
0.0
220
0.0
230
0.0
  0
ARC
  5
13D
330
48
100
AcDbEntity
  8
konin
  6
Continuous
 62
     0
 48
0.0
100
AcDbCircle
 10
17.74918523234868
 20
14.45626992968006
 30
0.0
 40
0.8437507754809074
100
AcDbArc
 50
154.4713695784705
 51
265.5289368525802
  0
LINE
  5
13E
330
48
100
AcDbEntity
  8
konin
  6
Continuous
 62
   250
 48
0.0
100
AcDbLine
 10
16.41979947490239
 20
15.38788766649646
 30
0.0
 11
16.98780980510258
 21
14.81989450243396
 31
0.0
210
0.0
220
0.0
230
0.0
  0
LINE
  5
13F
330
48
100
AcDbEntity
  8
konin
  6
Continuous
 62
   250
 48
0.0
100
AcDbLine
 10
17.89131513041996
 20
12.83915109423084
 30
0.0
 11
17.68341031474614
 21
13.61506624010486
 31
0.0
210
0.0
220
0.0
230
0.0
  0
LINE
  5
140
330
48
100
AcDbEntity
  8
konin
  6
Continuous
 62
   250
 48
0.0
100
AcDbLine
 10
42.35383403400464
 20
5.235562800439865
 30
0.0
 11
33.72883403400464
 21
5.235562800439865
 31
0.0
210
0.0
220
0.0
230
0.0
  0
LINE
  5
141
330
48
100
AcDbEntity
  8
konin
  6
Continuous
 62
   250
 48
0.0
100
AcDbLine
 10
33.72883403400464
 20
14.61056280043983
 30
0.0
 11
42.35383403400464
 21
14.61056280043983
 31
0.0
210
0.0
220
0.0
230
0.0
  0
LINE
  5
142
330
48
100
AcDbEntity
  8
konin
  6
Continuous
 62
   250
 48
0.0
100
AcDbLine
 10
41.79133403400465
 20
6.173062800439865
 30
0.0
 11
38.04133403400465
 21
6.173062800439836
 31
0.0
210
0.0
220
0.0
230
0.0
  0
LINE
  5
143
330
48
100
AcDbEntity
  8
konin
  6
Continuous
 62
   250
 48
0.0
100
AcDbLine
 10
34.29133403400465
 20
13.67306280043983
 30
0.0
 11
41.79133403400465
 21
13.67306280043983
 31
0.0
210
0.0
220
0.0
230
0.0
  0
ARC
  5
144
330
48
100
AcDbEntity
  8
konin
  6
Continuous
 62
     0
 48
0.0
100
AcDbCircle
 10
29.85016840737995
 20
7.525825873804109
 30
0.0
 40
0.5625000000000407
100
AcDbArc
 50
195.5928109392647
 51
286.1933991405523
  0
LINE
  5
145
330
48
100
AcDbEntity
  8
konin
  6
Continuous
 62
   250
 48
0.0
100
AcDbLine
 10
29.59393136448142
 20
8.431806033385171
 30
0.0
 11
30.1935771896214
 21
8.602924224649882
 31
0.0
210
0.0
220
0.0
230
0.0
  0
ARC
  5
146
330
48
100
AcDbEntity
  8
konin
  6
Continuous
 62
     0
 48
0.0
100
AcDbCircle
 10
29.74895805142392
 20
11.94257753639551
 30
0.0
 40
0.5625000000000391
100
AcDbArc
 50
165.592810939265
 51
256.1933991405496
  0
ARC
  5
147
330
48
100
AcDbEntity
  8
konin
  6
Continuous
 62
     0
 48
0.0
100
AcDbCircle
 10
29.84326318998387
 20
12.30968057080022
 30
0.0
 40
0.5624999999999199
100
AcDbArc
 50
75.92691498690147
 51
165.5928109392642
  0
ARC
  5
148
330
48
100
AcDbEntity
  8
konin
  6
Continuous
 62
     0
 48
0.0
100
AcDbCircle
 10
28.96633517841383
 20
9.923079966577532
 30
0.0
 40
0.8437346614821976
100
AcDbArc
 50
304.4705596042542
 51
55.52803952050354
  0
ARC
  5
149
330
48
100
AcDbEntity
  8
konin
  6
Continuous
 62
     0
 48
0.0
100
AcDbCircle
 10
28.96633517841383
 20
9.923079966577532
 30
0.0
 40
0.8437346614821976
100
AcDbArc
 50
304.4705596042542
 51
55.52803952050354
  0
LINE
  5
14A
330
48
100
AcDbEntity
  8
konin
  6
Continuous
 62
   250
 48
0.0
100
AcDbLine
 10
29.65179622272535
 20
11.39457273391151
 30
0.0
 11
29.44389140705152
 21
10.61865758803749
 31
0.0
210
0.0
220
0.0
230
0.0
  0
LINE
  5
14B
330
48
100
AcDbEntity
  8
konin
  6
Continuous
 62
   250
 48
0.0
100
AcDbLine
 10
29.65179622272535
 20
8.451552866968157
 30
0.0
 11
29.44389140705152
 21
9.22746801284218
 31
0.0
210
0.0
220
0.0
230
0.0
  0
LINE
  5
14C
330
48
100
AcDbEntity
  8
konin
  6
Continuous
 62
   250
 48
0.0
100
AcDbLine
 10
18.27954450053715
 20
11.39026040819568
 30
0.0
 11
18.48744931621098
 21
10.61434526232166
 31
0.0
210
0.0
220
0.0
230
0.0
  0
LINE
  5
14D
330
48
100
AcDbEntity
  8
konin
  6
Continuous
 62
   250
 48
0.0
100
AcDbLine
 10
18.72485110688444
 20
7.73538725157374
 30
0.0
 11
18.6229702353828
 21
7.370314128692839
 31
0.0
210
0.0
220
0.0
230
0.0
  0
ARC
  5
14E
330
48
100
AcDbEntity
  8
konin
  6
Continuous
 62
     0
 48
0.0
100
AcDbCircle
 10
18.18305318738453
 20
7.886586670969066
 30
0.0
 40
0.5624999999999273
100
AcDbArc
 50
344.4071890607335
 51
74.07308501310075
  0
ARC
  5
14F
330
48
100
AcDbEntity
  8
konin
  6
Continuous
 62
     0
 48
0.0
100
AcDbCircle
 10
18.96500554484868
 20
9.918767640861702
 30
0.0
 40
0.843734661482243
100
AcDbArc
 50
124.4719604794956
 51
235.5294403957388
  0
ARC
  5
150
330
48
100
AcDbEntity
  8
konin
  6
Continuous
 62
     0
 48
0.0
100
AcDbCircle
 10
18.96500554484868
 20
9.918767640861702
 30
0.0
 40
0.843734661482243
100
AcDbArc
 50
124.4719604794956
 51
235.5294403957388
  0
LINE
  5
151
330
48
100
AcDbEntity
  8
konin
  6
Continuous
 62
   250
 48
0.0
100
AcDbLine
 10
18.27954450053715
 20
8.447240541252327
 30
0.0
 11
18.48744931621098
 21
9.22315568712635
 31
0.0
210
0.0
220
0.0
230
0.0
  0
ARC
  5
152
330
48
100
AcDbEntity
  8
konin
  6
Continuous
 62
     0
 48
0.0
100
AcDbCircle
 10
18.18238267183852
 20
11.93826521067968
 30
0.0
 40
0.5625000000000169
100
AcDbArc
 50
283.8066008594498
 51
14.40718906073785
  0
LINE
  5
153
330
48
100
AcDbEntity
  8
konin
  6
Continuous
 62
   250
 48
0.0
100
AcDbLine
 10
18.63288800498077
 20
12.44532466660052
 30
0.0
 11
18.72719314354111
 21
12.07822163219596
 31
0.0
210
0.0
220
0.0
230
0.0
  0
LINE
  5
154
330
48
100
AcDbEntity
  8
konin
  6
Continuous
 62
   250
 48
0.0
100
AcDbLine
 10
29.20648961637795
 20
7.739699577289556
 30
0.0
 11
29.30837048787964
 21
7.374626454408669
 31
0.0
210
0.0
220
0.0
230
0.0
  0
ARC
  5
155
330
48
100
AcDbEntity
  8
konin
  6
Continuous
 62
     0
 48
0.0
100
AcDbCircle
 10
29.74828753587786
 20
7.890898996684882
 30
0.0
 40
0.5624999999999002
100
AcDbArc
 50
105.9269149868938
 51
195.5928109392664
  0
LINE
  5
156
330
48
100
AcDbEntity
  8
konin
  6
Continuous
 62
   250
 48
0.0
100
AcDbLine
 10
29.29845271828174
 20
12.44963699231637
 30
0.0
 11
29.20414757972134
 21
12.08253395791179
 31
0.0
210
0.0
220
0.0
230
0.0
  0
LINE
  5
157
330
48
100
AcDbEntity
  8
konin
  6
Continuous
 62
   250
 48
0.0
100
AcDbLine
 10
33.35383403400465
 20
5.610562800439865
 30
0.0
 11
33.35383403400465
 21
9.923062800439836
 31
0.0
210
0.0
220
0.0
230
0.0
  0
ARC
  5
158
330
48
100
AcDbEntity
  8
konin
  6
Continuous
 62
     0
 48
0.0
100
AcDbCircle
 10
30.18215549091383
 20
5.385577677759201
 30
0.0
 40
0.8437319169755074
100
AcDbArc
 50
334.4713931526025
 51
71.36574478971184
  0
ARC
  5
159
330
48
100
AcDbEntity
  8
konin
  6
Continuous
 62
     0
 48
0.0
100
AcDbCircle
 10
30.18215549091383
 20
5.385577677759201
 30
0.0
 40
0.8437313559772174
100
AcDbArc
 50
334.4713931526011
 51
85.52884597885347
  0
ARC
  5
15A
330
48
100
AcDbEntity
  8
konin
  6
Continuous
 62
     0
 48
0.0
100
AcDbCircle
 10
32.14619497805967
 20
3.751411909770823
 30
0.0
 40
0.562500000000007
100
AcDbArc
 50
225.5928109392655
 51
316.1933991405499
  0
LINE
  5
15B
330
48
100
AcDbEntity
  8
konin
  6
Continuous
 62
   250
 48
0.0
100
AcDbLine
 10
32.43961703876539
 20
4.321362971338302
 30
0.0
 11
32.96994769672437
 21
3.791032313379318
 31
0.0
210
0.0
220
0.0
230
0.0
  0
LINE
  5
15C
330
48
100
AcDbEntity
  8
konin
  6
Continuous
 62
   250
 48
0.0
100
AcDbLine
 10
31.48181594143199
 20
3.614792574689701
 30
0.0
 11
31.75258392575256
 21
3.349570411786729
 31
0.0
210
0.0
220
0.0
230
0.0
  0
LINE
  5
15D
330
48
100
AcDbEntity
  8
konin
  6
Continuous
 62
   250
 48
0.0
100
AcDbLine
 10
31.47129710972837
 20
4.407895221843389
 30
0.0
 11
31.90504653194051
 21
4.855910835098299
 31
0.0
210
0.0
220
0.0
230
0.0
  0
ARC
  5
15E
330
48
100
AcDbEntity
  8
konin
  6
Continuous
 62
     0
 48
0.0
100
AcDbCircle
 10
31.87542699373875
 20
4.016634072673454
 30
0.0
 40
0.5624999999998886
100
AcDbArc
 50
135.9269149868925
 51
225.5928109392723
  0
LINE
  5
15F
330
48
100
AcDbEntity
  8
konin
  6
Continuous
 62
   250
 48
0.0
100
AcDbLine
 10
31.9092863808064
 20
4.851693629297287
 30
0.0
 11
31.51154124836011
 21
4.453925608667404
 31
0.0
210
0.0
220
0.0
230
0.0
  0
LINE
  5
160
330
48
100
AcDbEntity
  8
konin
  6
Continuous
 62
   250
 48
0.0
100
AcDbLine
 10
32.43961703876539
 20
4.321362971338302
 30
0.0
 11
31.9092863808064
 21
4.851693629297287
 31
0.0
210
0.0
220
0.0
230
0.0
  0
LINE
  5
161
330
48
100
AcDbEntity
  8
konin
  6
Continuous
 62
   250
 48
0.0
100
AcDbLine
 10
31.51154124836011
 20
4.453925608667404
 30
0.0
 11
30.94353091815992
 21
5.021953105005295
 31
0.0
210
0.0
220
0.0
230
0.0
  0
LINE
  5
162
330
48
100
AcDbEntity
  8
konin
  6
Continuous
 62
   250
 48
0.0
100
AcDbLine
 10
32.55214025017261
 20
3.362034604257075
 30
0.0
 11
32.96671171077082
 21
3.794246040310753
 31
0.0
210
0.0
220
0.0
230
0.0
  0
ARC
  5
163
330
48
100
AcDbEntity
  8
konin
  6
Continuous
 62
     0
 48
0.0
100
AcDbCircle
 10
33.72883403400464
 20
5.610562800439865
 30
0.0
 40
0.375
100
AcDbArc
 50
180.0
 51
270.0
  0
LINE
  5
164
330
48
100
AcDbEntity
  8
konin
  6
Continuous
 62
   250
 48
0.0
100
AcDbLine
 10
32.96994769672437
 20
3.791032313379318
 30
0.0
 11
32.57220256427808
 21
3.393264292749435
 31
0.0
210
0.0
220
0.0
230
0.0
  0
LINE
  5
165
330
48
100
AcDbEntity
  8
konin
  6
Continuous
 62
   250
 48
0.0
100
AcDbLine
 10
32.57220256427808
 20
3.393264292749435
 30
0.0
 11
33.14021289447828
 21
2.825271128686935
 31
0.0
210
0.0
220
0.0
230
0.0
  0
LINE
  5
166
330
48
100
AcDbEntity
  8
konin
  6
Continuous
 62
   250
 48
0.0
100
AcDbLine
 10
38.04133403400465
 20
6.173062800439836
 30
0.0
 11
34.29133403400465
 21
6.173062800439836
 31
0.0
210
0.0
220
0.0
230
0.0
  0
LINE
  5
167
330
48
100
AcDbEntity
  8
konin
  6
Continuous
 62
   250
 48
0.0
100
AcDbLine
 10
33.35383403400465
 20
9.923062800439836
 30
0.0
 11
33.35383403400465
 21
14.23556280043983
 31
0.0
210
0.0
220
0.0
230
0.0
  0
LINE
  5
168
330
48
100
AcDbEntity
  8
konin
  6
Continuous
 62
   250
 48
0.0
100
AcDbLine
 10
34.29133403400465
 20
6.173062800439836
 30
0.0
 11
34.29133403400465
 21
13.67306280043983
 31
0.0
210
0.0
220
0.0
230
0.0
  0
LINE
  5
169
330
48
100
AcDbEntity
  8
konin
  6
Continuous
 62
   250
 48
0.0
100
AcDbLine
 10
30.00703867281913
 20
6.985642599515585
 30
0.0
 11
30.58217380740802
 21
7.152662952645144
 31
0.0
210
0.0
220
0.0
230
0.0
  0
LINE
  5
16A
330
48
100
AcDbEntity
  8
konin
  6
Continuous
 62
   250
 48
0.0
100
AcDbLine
 10
30.58336246112867
 20
7.14826536086467
 30
0.0
 11
30.04002559284254
 21
7.002662180933029
 31
0.0
210
0.0
220
0.0
230
0.0
  0
LINE
  5
16B
330
48
100
AcDbEntity
  8
konin
  6
Continuous
 62
   250
 48
0.0
100
AcDbLine
 10
30.38924777607007
 20
7.872710703882219
 30
0.0
 11
30.58336246112867
 21
7.14826536086467
 31
0.0
210
0.0
220
0.0
230
0.0
  0
LINE
  5
16C
330
48
100
AcDbEntity
  8
konin
  6
Continuous
 62
   250
 48
0.0
100
AcDbLine
 10
30.19513309101148
 20
8.597150324853899
 30
0.0
 11
29.65179622272535
 21
8.451552866968157
 31
0.0
210
0.0
220
0.0
230
0.0
  0
LINE
  5
16D
330
48
100
AcDbEntity
  8
konin
  6
Continuous
 62
   250
 48
0.0
100
AcDbLine
 10
30.38924777607007
 20
7.872710703882219
 30
0.0
 11
30.19513309101148
 21
8.597150324853899
 31
0.0
210
0.0
220
0.0
230
0.0
  0
LINE
  5
16E
330
48
100
AcDbEntity
  8
konin
  6
Continuous
 62
   250
 48
0.0
100
AcDbLine
 10
30.04002559284254
 20
7.002662180933029
 30
0.0
 11
30.24793040851637
 21
6.226747035058977
 31
0.0
210
0.0
220
0.0
230
0.0
  0
LINE
  5
16F
330
48
100
AcDbEntity
  8
konin
  6
Continuous
 62
   250
 48
0.0
100
AcDbLine
 10
31.4803058378219
 20
15.4122565842719
 30
0.0
 11
31.91251727387561
 21
14.99768512367369
 31
0.0
210
0.0
220
0.0
230
0.0
  0
LINE
  5
170
330
48
100
AcDbEntity
  8
konin
  6
Continuous
 62
   250
 48
0.0
100
AcDbLine
 10
29.61472004924837
 20
11.39632996544263
 30
0.0
 11
30.19631186297613
 21
11.25340626690739
 31
0.0
210
0.0
220
0.0
230
0.0
  0
LINE
  5
171
330
48
100
AcDbEntity
  8
konin
  6
Continuous
 62
   250
 48
0.0
100
AcDbLine
 10
29.98004034267364
 20
12.85529789136667
 30
0.0
 11
30.58490795615057
 21
12.70366767948155
 31
0.0
210
0.0
220
0.0
230
0.0
  0
LINE
  5
172
330
48
100
AcDbEntity
  8
konin
  6
Continuous
 62
   250
 48
0.0
100
AcDbLine
 10
31.55990654305469
 20
15.34795561955597
 30
0.0
 11
31.9092863808064
 21
14.9944663038578
 31
0.0
210
0.0
220
0.0
230
0.0
  0
LINE
  5
173
330
48
100
AcDbEntity
  8
konin
  6
Continuous
 62
   250
 48
0.0
100
AcDbLine
 10
30.19513309101148
 20
11.23486373574841
 30
0.0
 11
29.65179622272535
 21
11.38042686135877
 31
0.0
210
0.0
220
0.0
230
0.0
  0
LINE
  5
174
330
48
100
AcDbEntity
  8
konin
  6
Continuous
 62
   250
 48
0.0
100
AcDbLine
 10
30.38924777607007
 20
11.95930335672009
 30
0.0
 11
30.19513309101148
 21
11.23486373574841
 31
0.0
210
0.0
220
0.0
230
0.0
  0
LINE
  5
175
330
48
100
AcDbEntity
  8
konin
  6
Continuous
 62
   250
 48
0.0
100
AcDbLine
 10
30.58336246112867
 20
12.68374869973767
 30
0.0
 11
30.04002559284254
 21
12.82931754739392
 31
0.0
210
0.0
220
0.0
230
0.0
  0
LINE
  5
176
330
48
100
AcDbEntity
  8
konin
  6
Continuous
 62
   250
 48
0.0
100
AcDbLine
 10
30.38924777607007
 20
11.95930335672009
 30
0.0
 11
30.58336246112867
 21
12.68374869973767
 31
0.0
210
0.0
220
0.0
230
0.0
  0
ARC
  5
177
330
48
100
AcDbEntity
  8
konin
  6
Continuous
 62
     0
 48
0.0
100
AcDbCircle
 10
30.18215549091383
 20
14.46058225539589
 30
0.0
 40
0.8437507754808967
100
AcDbArc
 50
274.4710631474198
 51
25.52863042152948
  0
LINE
  5
178
330
48
100
AcDbEntity
  8
konin
  6
Continuous
 62
   250
 48
0.0
100
AcDbLine
 10
31.9092863808064
 20
14.9944663038578
 30
0.0
 11
31.51154124836011
 21
15.39219999221229
 31
0.0
210
0.0
220
0.0
230
0.0
  0
LINE
  5
179
330
48
100
AcDbEntity
  8
konin
  6
Continuous
 62
   250
 48
0.0
100
AcDbLine
 10
32.43961703876539
 20
15.52479696181679
 30
0.0
 11
31.9092863808064
 21
14.9944663038578
 31
0.0
210
0.0
220
0.0
230
0.0
  0
ARC
  5
17A
330
48
100
AcDbEntity
  8
konin
  6
Continuous
 62
     0
 48
0.0
100
AcDbCircle
 10
30.18215549091383
 20
14.46058225539589
 30
0.0
 40
0.8437507754808967
100
AcDbArc
 50
274.4710631474198
 51
25.52863042152948
  0
LINE
  5
17B
330
48
100
AcDbEntity
  8
konin
  6
Continuous
 62
   250
 48
0.0
100
AcDbLine
 10
31.51154124836011
 20
15.39219999221229
 30
0.0
 11
30.94353091815992
 21
14.82420682814979
 31
0.0
210
0.0
220
0.0
230
0.0
  0
LINE
  5
17C
330
48
100
AcDbEntity
  8
konin
  6
Continuous
 62
   250
 48
0.0
100
AcDbLine
 10
30.04002559284254
 20
12.84346341994667
 30
0.0
 11
30.24793040851637
 21
13.61937856582069
 31
0.0
210
0.0
220
0.0
230
0.0
  0
ARC
  5
17D
330
48
100
AcDbEntity
  8
konin
  6
Continuous
 62
     0
 48
0.0
100
AcDbCircle
 10
33.72883403400464
 20
14.23556280043983
 30
0.0
 40
0.375
100
AcDbArc
 50
90.0
 51
180.0
  0
LINE
  5
17E
330
48
100
AcDbEntity
  8
konin
  6
Continuous
 62
   250
 48
0.0
100
AcDbLine
 10
42.72883403400465
 20
14.23556280043983
 30
0.0
 11
42.72883403400465
 21
5.610562800439865
 31
0.0
210
0.0
220
0.0
230
0.0
  0
LINE
  5
17F
330
48
100
AcDbEntity
  8
konin
  6
Continuous
 62
   250
 48
0.0
100
AcDbLine
 10
46.71551501850172
 20
5.167201518091232
 30
0.0
 11
47.93133533100172
 21
9.704703806909563
 31
0.0
210
0.0
220
0.0
230
0.0
  0
ARC
  5
180
330
48
100
AcDbEntity
  8
konin
  6
Continuous
 62
     0
 48
0.0
100
AcDbCircle
 10
45.90051829914137
 20
5.385560511621505
 30
0.0
 40
0.8437518157666124
100
AcDbArc
 50
94.47104800215759
 51
345.000202439348
  0
ARC
  5
181
330
48
100
AcDbEntity
  8
konin
  6
Continuous
 62
     0
 48
0.0
100
AcDbCircle
 10
45.90051829914137
 20
5.385560511621505
 30
0.0
 40
0.8437518157666124
100
AcDbArc
 50
94.47104800215759
 51
345.000202439348
  0
LINE
  5
182
330
48
100
AcDbEntity
  8
konin
  6
Continuous
 62
   250
 48
0.0
100
AcDbLine
 10
43.64305675128981
 20
4.321345805200607
 30
0.0
 11
44.17338740924878
 21
4.851676463159591
 31
0.0
210
0.0
220
0.0
230
0.0
  0
LINE
  5
183
330
48
100
AcDbEntity
  8
konin
  6
Continuous
 62
   250
 48
0.0
100
AcDbLine
 10
44.04080188373609
 20
3.923612116846115
 30
0.0
 11
45.13914287189527
 21
5.021935938867599
 31
0.0
210
0.0
220
0.0
230
0.0
  0
ARC
  5
184
330
48
100
AcDbEntity
  8
konin
  6
Continuous
 62
     0
 48
0.0
100
AcDbCircle
 10
42.35383403400464
 20
5.610562800439865
 30
0.0
 40
0.375
100
AcDbArc
 50
270.0
 51
0.0
  0
LINE
  5
185
330
48
100
AcDbEntity
  8
konin
  6
Continuous
 62
   250
 48
0.0
100
AcDbLine
 10
43.11272609333082
 20
3.791015147241623
 30
0.0
 11
43.5104712257771
 21
3.39328145888713
 31
0.0
210
0.0
220
0.0
230
0.0
  0
LINE
  5
186
330
48
100
AcDbEntity
  8
konin
  6
Continuous
 62
   250
 48
0.0
100
AcDbLine
 10
43.64305675128981
 20
4.321345805200607
 30
0.0
 11
43.11272609333082
 21
3.791015147241623
 31
0.0
210
0.0
220
0.0
230
0.0
  0
LINE
  5
187
330
48
100
AcDbEntity
  8
konin
  6
Continuous
 62
   250
 48
0.0
100
AcDbLine
 10
44.04080188373609
 20
3.923612116846115
 30
0.0
 11
42.94246089557691
 21
2.82525396254924
 31
0.0
210
0.0
220
0.0
230
0.0
  0
CIRCLE
  5
188
330
48
100
AcDbEntity
  8
konin
  6
Continuous
 62
     0
 48
0.0
100
AcDbCircle
 10
45.90051829914137
 20
5.385560511621505
 30
0.0
 40
0.46875
  0
LINE
  5
189
330
48
100
AcDbEntity
  8
konin
  6
Continuous
 62
   250
 48
0.0
100
AcDbLine
 10
45.23760211566968
 20
4.72266721633342
 30
0.0
 11
45.03873241046949
 21
4.921525477441818
 31
0.0
210
0.0
220
0.0
230
0.0
  0
LINE
  5
18A
330
48
100
AcDbEntity
  8
konin
  6
Continuous
 62
   250
 48
0.0
100
AcDbLine
 10
45.23760211566968
 20
4.72266721633342
 30
0.0
 11
45.83422839740797
 21
4.126046656641037
 31
0.0
210
0.0
220
0.0
230
0.0
  0
LINE
  5
18B
330
48
100
AcDbEntity
  8
konin
  6
Continuous
 62
   250
 48
0.0
100
AcDbLine
 10
44.17338740924878
 20
4.851676463159591
 30
0.0
 11
44.57113254169508
 21
4.453942774805099
 31
0.0
210
0.0
220
0.0
230
0.0
  0
CIRCLE
  5
18C
330
48
100
AcDbEntity
  8
konin
  6
Continuous
 62
     0
 48
0.0
100
AcDbCircle
 10
45.90051829914137
 20
5.385560511621505
 30
0.0
 40
0.46875
  0
LINE
  5
18D
330
48
100
AcDbEntity
  8
konin
  6
Continuous
 62
   250
 48
0.0
100
AcDbLine
 10
47.93133533100172
 20
10.1414561262455
 30
0.0
 11
46.71551501850172
 21
14.67895841506386
 31
0.0
210
0.0
220
0.0
230
0.0
  0
ARC
  5
18E
330
48
100
AcDbEntity
  8
konin
  6
Continuous
 62
     0
 48
0.0
100
AcDbCircle
 10
47.11633861164137
 20
9.923062800439836
 30
0.0
 40
0.8437532967396595
100
AcDbArc
 50
124.4705405205937
 51
15.00017288149026
  0
CIRCLE
  5
18F
330
48
100
AcDbEntity
  8
konin
  6
Continuous
 62
     0
 48
0.0
100
AcDbCircle
 10
47.11633861164137
 20
9.923062800439836
 30
0.0
 40
0.46875
  0
LINE
  5
190
330
48
100
AcDbEntity
  8
konin
  6
Continuous
 62
   250
 48
0.0
100
AcDbLine
 10
46.87369525531813
 20
9.017526148828508
 30
0.0
 11
47.68869197467847
 21
8.799127100976946
 31
0.0
210
0.0
220
0.0
230
0.0
  0
ARC
  5
191
330
48
100
AcDbEntity
  8
konin
  6
Continuous
 62
     0
 48
0.0
100
AcDbCircle
 10
47.11633861164137
 20
9.923062800439836
 30
0.0
 40
0.8437518157666385
100
AcDbArc
 50
124.4707604397078
 51
14.99979756065337
  0
CIRCLE
  5
192
330
48
100
AcDbEntity
  8
konin
  6
Continuous
 62
     0
 48
0.0
100
AcDbCircle
 10
47.11633861164137
 20
9.923062800439836
 30
0.0
 40
0.46875
  0
LINE
  5
193
330
48
100
AcDbEntity
  8
konin
  6
Continuous
 62
   250
 48
0.0
100
AcDbLine
 10
41.79133403400465
 20
13.67306280043983
 30
0.0
 11
41.79133403400465
 21
6.173062800439865
 31
0.0
210
0.0
220
0.0
230
0.0
  0
LINE
  5
194
330
48
100
AcDbEntity
  8
konin
  6
Continuous
 62
   250
 48
0.0
100
AcDbLine
 10
46.23676288227125
 20
12.11903524306679
 30
0.0
 11
46.63878238300367
 21
10.61867475417518
 31
0.0
210
0.0
220
0.0
230
0.0
  0
LINE
  5
195
330
48
100
AcDbEntity
  8
konin
  6
Continuous
 62
   250
 48
0.0
100
AcDbLine
 10
46.87369525531813
 20
9.017526148828508
 30
0.0
 11
46.60202968219801
 21
9.090299128564836
 31
0.0
210
0.0
220
0.0
230
0.0
  0
LINE
  5
196
330
48
100
AcDbEntity
  8
konin
  6
Continuous
 62
   250
 48
0.0
100
AcDbLine
 10
45.8875406990437
 20
8.597133158716204
 30
0.0
 11
46.43087184528394
 21
8.451552866968157
 31
0.0
210
0.0
220
0.0
230
0.0
  0
LINE
  5
197
330
48
100
AcDbEntity
  8
konin
  6
Continuous
 62
   250
 48
0.0
100
AcDbLine
 10
45.69342601398512
 20
7.872693537744524
 30
0.0
 11
45.8875406990437
 21
8.597133158716204
 31
0.0
210
0.0
220
0.0
230
0.0
  0
LINE
  5
198
330
48
100
AcDbEntity
  8
konin
  6
Continuous
 62
   250
 48
0.0
100
AcDbLine
 10
45.49931132892652
 20
7.148248194726946
 30
0.0
 11
46.04264819721265
 21
7.002679347070696
 31
0.0
210
0.0
220
0.0
230
0.0
  0
LINE
  5
199
330
48
100
AcDbEntity
  8
konin
  6
Continuous
 62
   250
 48
0.0
100
AcDbLine
 10
45.69342601398512
 20
7.872693537744524
 30
0.0
 11
45.49931132892652
 21
7.148248194726946
 31
0.0
210
0.0
220
0.0
230
0.0
  0
LINE
  5
19A
330
48
100
AcDbEntity
  8
konin
  6
Continuous
 62
   250
 48
0.0
100
AcDbLine
 10
46.23676288227125
 20
7.727124690088274
 30
0.0
 11
46.63878238300367
 21
9.227485178979875
 31
0.0
210
0.0
220
0.0
230
0.0
  0
LINE
  5
19B
330
48
100
AcDbEntity
  8
konin
  6
Continuous
 62
   250
 48
0.0
100
AcDbLine
 10
46.23676288227125
 20
7.727124690088274
 30
0.0
 11
45.83473765949293
 21
6.226747035059005
 31
0.0
210
0.0
220
0.0
230
0.0
  0
LINE
  5
19C
330
48
100
AcDbEntity
  8
konin
  6
Continuous
 62
   250
 48
0.0
100
AcDbLine
 10
43.64305675128981
 20
15.52477979567909
 30
0.0
 11
44.17338740924878
 21
14.99444913772011
 31
0.0
210
0.0
220
0.0
230
0.0
  0
ARC
  5
19D
330
48
100
AcDbEntity
  8
konin
  6
Continuous
 62
     0
 48
0.0
100
AcDbCircle
 10
42.35383403400464
 20
14.23556280043983
 30
0.0
 40
0.375
100
AcDbArc
 50
0.0
 51
90.0
  0
CIRCLE
  5
19E
330
48
100
AcDbEntity
  8
konin
  6
Continuous
 62
     0
 48
0.0
100
AcDbCircle
 10
45.90051829914137
 20
14.46056508925819
 30
0.0
 40
0.8437471825310796
  0
ARC
  5
19F
330
48
100
AcDbEntity
  8
konin
  6
Continuous
 62
     0
 48
0.0
100
AcDbCircle
 10
45.90051829914137
 20
14.46056508925819
 30
0.0
 40
0.843747769110838
100
AcDbArc
 50
154.4713695784701
 51
46.85025009053766
  0
LINE
  5
1A0
330
48
100
AcDbEntity
  8
konin
  6
Continuous
 62
   250
 48
0.0
100
AcDbLine
 10
44.17338740924878
 20
14.99444913772011
 30
0.0
 11
44.57113254169508
 21
15.39221715834999
 31
0.0
210
0.0
220
0.0
230
0.0
  0
ARC
  5
1A1
330
48
100
AcDbEntity
  8
konin
  6
Continuous
 62
     0
 48
0.0
100
AcDbCircle
 10
45.90051829914137
 20
14.46056508925819
 30
0.0
 40
0.8437518157666328
100
AcDbArc
 50
154.4713695784703
 51
14.9997975606529
  0
CIRCLE
  5
1A2
330
48
100
AcDbEntity
  8
konin
  6
Continuous
 62
     0
 48
0.0
100
AcDbCircle
 10
45.90051829914137
 20
14.46056508925819
 30
0.0
 40
0.46875
  0
LINE
  5
1A3
330
48
100
AcDbEntity
  8
konin
  6
Continuous
 62
   250
 48
0.0
100
AcDbLine
 10
46.14316165546461
 20
13.55502271560097
 30
0.0
 11
45.87149608234449
 21
13.48221540358925
 31
0.0
210
0.0
220
0.0
230
0.0
  0
LINE
  5
1A4
330
48
100
AcDbEntity
  8
konin
  6
Continuous
 62
   250
 48
0.0
100
AcDbLine
 10
46.14316165546461
 20
13.55502271560097
 30
0.0
 11
46.95815837482496
 21
13.77338743117714
 31
0.0
210
0.0
220
0.0
230
0.0
  0
LINE
  5
1A5
330
48
100
AcDbEntity
  8
konin
  6
Continuous
 62
   250
 48
0.0
100
AcDbLine
 10
45.49931132892652
 20
12.69787740615272
 30
0.0
 11
46.04264819721265
 21
12.84348058608436
 31
0.0
210
0.0
220
0.0
230
0.0
  0
LINE
  5
1A6
330
48
100
AcDbEntity
  8
konin
  6
Continuous
 62
   250
 48
0.0
100
AcDbLine
 10
45.69342601398512
 20
11.97343206313514
 30
0.0
 11
45.49931132892652
 21
12.69787740615272
 31
0.0
210
0.0
220
0.0
230
0.0
  0
LINE
  5
1A7
330
48
100
AcDbEntity
  8
konin
  6
Continuous
 62
   250
 48
0.0
100
AcDbLine
 10
45.8875406990437
 20
11.24899244216347
 30
0.0
 11
46.43087184528394
 21
11.39457273391151
 31
0.0
210
0.0
220
0.0
230
0.0
  0
LINE
  5
1A8
330
48
100
AcDbEntity
  8
konin
  6
Continuous
 62
   250
 48
0.0
100
AcDbLine
 10
45.69342601398512
 20
11.97343206313514
 30
0.0
 11
45.8875406990437
 21
11.24899244216347
 31
0.0
210
0.0
220
0.0
230
0.0
  0
LINE
  5
1A9
330
48
100
AcDbEntity
  8
konin
  6
Continuous
 62
   250
 48
0.0
100
AcDbLine
 10
46.23676288227125
 20
12.11903524306679
 30
0.0
 11
45.83473765949293
 21
13.61937856582069
 31
0.0
210
0.0
220
0.0
230
0.0
  0
ARC
  5
1AA
330
48
100
AcDbEntity
  8
konin
  6
Continuous
 62
     0
 48
0.0
100
AcDbCircle
 10
45.90051829914137
 20
14.46056508925819
 30
0.0
 40
0.8437518157666328
100
AcDbArc
 50
154.4713695784703
 51
14.9997975606529
  0
CIRCLE
  5
1AB
330
48
100
AcDbEntity
  8
konin
  6
Continuous
 62
     0
 48
0.0
100
AcDbCircle
 10
45.90051829914137
 20
14.46056508925819
 30
0.0
 40
0.46875
  0
LINE
  5
1AC
330
48
100
AcDbEntity
  8
konin
  6
Continuous
 62
   250
 48
0.0
100
AcDbLine
 10
16.93635144633793
 20
18.71249933031482
 30
0.0
 11
18.48964085979008
 21
18.71251649645252
 31
0.0
210
0.0
220
0.0
230
0.0
  0
LINE
  5
1AD
330
48
100
AcDbEntity
  8
konin
  6
Continuous
 62
   250
 48
0.0
100
AcDbLine
 10
14.58757176799321
 20
19.83751649645252
 30
0.0
 11
19.28513684672856
 21
19.83749933031482
 31
0.0
210
0.0
220
0.0
230
0.0
  0
LINE
  5
1AE
330
48
100
AcDbEntity
  8
konin
  6
Continuous
 62
   250
 48
0.0
100
AcDbLine
 10
5.134128240771474
 20
18.59293145922107
 30
0.0
 11
9.671624807543992
 21
19.80876893785877
 31
0.0
210
0.0
220
0.0
230
0.0
  0
LINE
  5
1AF
330
48
100
AcDbEntity
  8
konin
  6
Continuous
 62
   250
 48
0.0
100
AcDbLine
 10
7.694045690722703
 20
18.11417360094471
 30
0.0
 11
6.193685201831101
 21
17.71217126634998
 31
0.0
210
0.0
220
0.0
230
0.0
  0
CIRCLE
  5
1B0
330
48
100
AcDbEntity
  8
konin
  6
Continuous
 62
     0
 48
0.0
100
AcDbCircle
 10
5.352504400439443
 20
17.77792901781482
 30
0.0
 40
0.46875
  0
ARC
  5
1B1
330
48
100
AcDbEntity
  8
konin
  6
Continuous
 62
     0
 48
0.0
100
AcDbCircle
 10
5.352504400439443
 20
17.77792901781482
 30
0.0
 40
0.8437518157666257
100
AcDbArc
 50
104.9997975606533
 51
355.530129277389
  0
LINE
  5
1B2
330
48
100
AcDbEntity
  8
konin
  6
Continuous
 62
   250
 48
0.0
100
AcDbLine
 10
4.689593939013661
 20
17.11501855638904
 30
0.0
 11
4.888463644213857
 21
16.91616029528064
 31
0.0
210
0.0
220
0.0
230
0.0
  0
LINE
  5
1B3
330
48
100
AcDbEntity
  8
konin
  6
Continuous
 62
   250
 48
0.0
100
AcDbLine
 10
4.689593939013661
 20
17.11501855638904
 30
0.0
 11
4.09296765727538
 21
17.71163911608143
 31
0.0
210
0.0
220
0.0
230
0.0
  0
LINE
  5
1B4
330
48
100
AcDbEntity
  8
konin
  6
Continuous
 62
   250
 48
0.0
100
AcDbLine
 10
4.81861462993163
 20
16.05079812792225
 30
0.0
 11
4.420869497485341
 21
16.44856614855213
 31
0.0
210
0.0
220
0.0
230
0.0
  0
LINE
  5
1B5
330
48
100
AcDbEntity
  8
konin
  6
Continuous
 62
   250
 48
0.0
100
AcDbLine
 10
3.890538839526357
 20
15.91823549059314
 30
0.0
 11
4.988879827685536
 21
17.01655931261463
 31
0.0
210
0.0
220
0.0
230
0.0
  0
ARC
  5
1B6
330
48
100
AcDbEntity
  8
konin
  6
Continuous
 62
     0
 48
0.0
100
AcDbCircle
 10
5.352504400439443
 20
17.77792901781482
 30
0.0
 40
0.8437518157666257
100
AcDbArc
 50
104.9997975606533
 51
355.530129277389
  0
CIRCLE
  5
1B7
330
48
100
AcDbEntity
  8
konin
  6
Continuous
 62
     0
 48
0.0
100
AcDbCircle
 10
5.352504400439443
 20
17.77792901781482
 30
0.0
 40
0.46875
  0
LINE
  5
1B8
330
48
100
AcDbEntity
  8
konin
  6
Continuous
 62
   250
 48
0.0
100
AcDbLine
 10
12.84964999330372
 20
18.17270054727484
 30
0.0
 11
11.3108830049029
 21
18.17270054727484
 31
0.0
210
0.0
220
0.0
230
0.0
  0
LINE
  5
1B9
330
48
100
AcDbEntity
  8
konin
  6
Continuous
 62
   250
 48
0.0
100
AcDbLine
 10
11.94037595195317
 20
17.57084245470447
 30
0.0
 11
12.66482129497075
 21
17.37672776964588
 31
0.0
210
0.0
220
0.0
230
0.0
  0
LINE
  5
1BA
330
48
100
AcDbEntity
  8
konin
  6
Continuous
 62
   250
 48
0.0
100
AcDbLine
 10
9.890006689257859
 20
19.83749933031482
 30
0.0
 11
14.58757176799321
 21
19.83751649645252
 31
0.0
210
0.0
220
0.0
230
0.0
  0
LINE
  5
1BB
330
48
100
AcDbEntity
  8
konin
  6
Continuous
 62
   250
 48
0.0
100
AcDbLine
 10
12.09100146731344
 20
18.71251486321154
 30
0.0
 11
13.79207578105473
 21
18.71249933031482
 31
0.0
210
0.0
220
0.0
230
0.0
  0
ARC
  5
1BC
330
48
100
AcDbEntity
  8
konin
  6
Continuous
 62
     0
 48
0.0
100
AcDbCircle
 10
9.890006689257859
 20
18.99374933031482
 30
0.0
 40
0.84375
100
AcDbArc
 50
90.0
 51
340.5300273278538
  0
ARC
  5
1BD
330
48
100
AcDbEntity
  8
konin
  6
Continuous
 62
     0
 48
0.0
100
AcDbCircle
 10
9.890006689257859
 20
18.99374933031482
 30
0.0
 40
0.8437518157666257
100
AcDbArc
 50
104.9997975606533
 51
340.5300273278547
  0
ARC
  5
1BE
330
48
100
AcDbEntity
  8
konin
  6
Continuous
 62
     0
 48
0.0
100
AcDbCircle
 10
9.890006689257859
 20
18.99374933031482
 30
0.0
 40
0.84375
100
AcDbArc
 50
90.0
 51
340.5300273278538
  0
LINE
  5
1BF
330
48
100
AcDbEntity
  8
konin
  6
Continuous
 62
   250
 48
0.0
100
AcDbLine
 10
7.694045690722703
 20
18.11417360094471
 30
0.0
 11
9.194406179614304
 21
18.51621026781482
 31
0.0
210
0.0
220
0.0
230
0.0
  0
LINE
  5
1C0
330
48
100
AcDbEntity
  8
konin
  6
Continuous
 62
   250
 48
0.0
100
AcDbLine
 10
7.839631704516648
 20
17.57085962084217
 30
0.0
 11
7.11518636149907
 21
17.37674493578357
 31
0.0
210
0.0
220
0.0
230
0.0
  0
LINE
  5
1C1
330
48
100
AcDbEntity
  8
konin
  6
Continuous
 62
   250
 48
0.0
100
AcDbLine
 10
7.11518636149907
 20
17.37674493578357
 30
0.0
 11
6.969600347705124
 21
17.92005891588611
 31
0.0
210
0.0
220
0.0
230
0.0
  0
LINE
  5
1C2
330
48
100
AcDbEntity
  8
konin
  6
Continuous
 62
   250
 48
0.0
100
AcDbLine
 10
7.839631704516648
 20
17.57085962084217
 30
0.0
 11
8.564077047534226
 21
17.76497430590076
 31
0.0
210
0.0
220
0.0
230
0.0
  0
LINE
  5
1C3
330
48
100
AcDbEntity
  8
konin
  6
Continuous
 62
   250
 48
0.0
100
AcDbLine
 10
8.564077047534226
 20
17.76497430590076
 30
0.0
 11
8.418491033740281
 21
18.3082882860033
 31
0.0
210
0.0
220
0.0
230
0.0
  0
LINE
  5
1C4
330
48
100
AcDbEntity
  8
konin
  6
Continuous
 62
   250
 48
0.0
100
AcDbLine
 10
8.984447149462937
 20
18.75110597399158
 30
0.0
 11
8.766070989794968
 21
19.56610841539783
 31
0.0
210
0.0
220
0.0
230
0.0
  0
LINE
  5
1C5
330
48
100
AcDbEntity
  8
konin
  6
Continuous
 62
   250
 48
0.0
100
AcDbLine
 10
8.984447149462937
 20
18.75110597399158
 30
0.0
 11
9.057243017382859
 21
18.47944040087146
 31
0.0
210
0.0
220
0.0
230
0.0
  0
LINE
  5
1C6
330
48
100
AcDbEntity
  8
konin
  6
Continuous
 62
   250
 48
0.0
100
AcDbLine
 10
11.3108830049029
 20
18.17270054727484
 30
0.0
 11
11.3108830049029
 21
18.68239525632485
 31
0.0
210
0.0
220
0.0
230
0.0
  0
LINE
  5
1C7
330
48
100
AcDbEntity
  8
konin
  6
Continuous
 62
   250
 48
0.0
100
AcDbLine
 10
12.09100146731344
 20
18.71251486321154
 30
0.0
 11
10.68549695415043
 21
18.71249933031482
 31
0.0
210
0.0
220
0.0
230
0.0
  0
LINE
  5
1C8
330
48
100
AcDbEntity
  8
konin
  6
Continuous
 62
   250
 48
0.0
100
AcDbLine
 10
12.09100146731344
 20
18.71251486321154
 30
0.0
 11
12.09100146731344
 21
18.71251486321154
 31
0.0
210
0.0
220
0.0
230
0.0
  0
CIRCLE
  5
1C9
330
48
100
AcDbEntity
  8
konin
  6
Continuous
 62
     0
 48
0.0
100
AcDbCircle
 10
9.890006689257859
 20
18.99374933031482
 30
0.0
 40
0.46875
  0
LINE
  5
1CA
330
48
100
AcDbEntity
  8
konin
  6
Continuous
 62
   250
 48
0.0
100
AcDbLine
 10
11.21593060893559
 20
17.76495713976307
 30
0.0
 11
11.36151662272953
 21
18.308305452141
 31
0.0
210
0.0
220
0.0
230
0.0
  0
LINE
  5
1CB
330
48
100
AcDbEntity
  8
konin
  6
Continuous
 62
   250
 48
0.0
100
AcDbLine
 10
11.94037595195317
 20
17.57084245470447
 30
0.0
 11
11.21593060893559
 21
17.76495713976307
 31
0.0
210
0.0
220
0.0
230
0.0
  0
CIRCLE
  5
1CC
330
48
100
AcDbEntity
  8
konin
  6
Continuous
 62
     0
 48
0.0
100
AcDbCircle
 10
9.890006689257859
 20
18.99374933031482
 30
0.0
 40
0.46875
  0
LINE
  5
1CD
330
48
100
AcDbEntity
  8
konin
  6
Continuous
 62
   250
 48
0.0
100
AcDbLine
 10
11.36151662272953
 20
18.308305452141
 30
0.0
 11
10.58560147685551
 21
18.51619310167713
 31
0.0
210
0.0
220
0.0
230
0.0
  0
CIRCLE
  5
1CE
330
48
100
AcDbEntity
  8
konin
  6
Continuous
 62
     0
 48
0.0
100
AcDbCircle
 10
9.890006689257859
 20
18.99374933031482
 30
0.0
 40
0.46875
  0
LINE
  5
1CF
330
48
100
AcDbEntity
  8
konin
  6
Continuous
 62
   250
 48
0.0
100
AcDbLine
 10
15.40517426785425
 20
16.48878739900031
 30
0.0
 11
14.95715865459931
 21
16.05503797678814
 31
0.0
210
0.0
220
0.0
230
0.0
  0
ARC
  5
1D0
330
48
100
AcDbEntity
  8
konin
  6
Continuous
 62
     0
 48
0.0
100
AcDbCircle
 10
14.58757176799321
 20
18.99376649645252
 30
0.0
 40
0.84375
100
AcDbArc
 50
90.0
 51
340.527570251065
  0
LINE
  5
1D1
330
48
100
AcDbEntity
  8
konin
  6
Continuous
 62
   250
 48
0.0
100
AcDbLine
 10
14.96139302653813
 20
16.05081529405994
 30
0.0
 11
15.35913815898442
 21
16.44854898241443
 31
0.0
210
0.0
220
0.0
230
0.0
  0
LINE
  5
1D2
330
48
100
AcDbEntity
  8
konin
  6
Continuous
 62
   250
 48
0.0
100
AcDbLine
 10
15.35913815898442
 20
16.44854898241443
 30
0.0
 11
14.79112782878422
 21
17.01657647875232
 31
0.0
210
0.0
220
0.0
230
0.0
  0
ARC
  5
1D3
330
48
100
AcDbEntity
  8
konin
  6
Continuous
 62
     0
 48
0.0
100
AcDbCircle
 10
14.58757176799321
 20
18.99376649645252
 30
0.0
 40
0.8437565312235223
100
AcDbArc
 50
199.4723002215821
 51
340.5276997784178
  0
CIRCLE
  5
1D4
330
48
100
AcDbEntity
  8
konin
  6
Continuous
 62
     0
 48
0.0
100
AcDbCircle
 10
14.58757176799321
 20
18.99376649645252
 30
0.0
 40
0.84375
  0
LINE
  5
1D5
330
48
100
AcDbEntity
  8
konin
  6
Continuous
 62
   250
 48
0.0
100
AcDbLine
 10
12.81040730876469
 20
17.92007608202381
 30
0.0
 11
12.87735381892349
 21
18.14835638551271
 31
0.0
210
0.0
220
0.0
230
0.0
  0
LINE
  5
1D6
330
48
100
AcDbEntity
  8
konin
  6
Continuous
 62
   250
 48
0.0
100
AcDbLine
 10
13.10611623226157
 20
18.17270054727484
 30
0.0
 11
13.10611623226157
 21
18.70826239921635
 31
0.0
210
0.0
220
0.0
230
0.0
  0
LINE
  5
1D7
330
48
100
AcDbEntity
  8
konin
  6
Continuous
 62
   250
 48
0.0
100
AcDbLine
 10
12.84964999330372
 20
18.17270054727484
 30
0.0
 11
13.10611623226157
 21
18.17270054727484
 31
0.0
210
0.0
220
0.0
230
0.0
  0
CIRCLE
  5
1D8
330
48
100
AcDbEntity
  8
konin
  6
Continuous
 62
     0
 48
0.0
100
AcDbCircle
 10
14.58757176799321
 20
18.99376649645252
 30
0.0
 40
0.46875
  0
ARC
  5
1D9
330
48
100
AcDbEntity
  8
konin
  6
Continuous
 62
     0
 48
0.0
100
AcDbCircle
 10
14.42750325603032
 20
17.77794618395252
 30
0.0
 40
0.8437498082445406
100
AcDbArc
 50
184.4722252859227
 51
295.5286304215258
  0
LINE
  5
1DA
330
48
100
AcDbEntity
  8
konin
  6
Continuous
 62
   250
 48
0.0
100
AcDbLine
 10
12.66482129497075
 20
17.37672776964588
 30
0.0
 11
12.81040730876469
 21
17.92007608202381
 31
0.0
210
0.0
220
0.0
230
0.0
  0
ARC
  5
1DB
330
48
100
AcDbEntity
  8
konin
  6
Continuous
 62
     0
 48
0.0
100
AcDbCircle
 10
14.42750325603032
 20
17.77794618395252
 30
0.0
 40
0.8437496957873065
100
AcDbArc
 50
181.7005970511521
 51
295.5286304215254
  0
LINE
  5
1DC
330
48
100
AcDbEntity
  8
konin
  6
Continuous
 62
   250
 48
0.0
100
AcDbLine
 10
12.81040730876469
 20
17.92007608202381
 30
0.0
 11
13.58632245463871
 21
17.71215410021228
 31
0.0
210
0.0
220
0.0
230
0.0
  0
CIRCLE
  5
1DD
330
48
100
AcDbEntity
  8
konin
  6
Continuous
 62
     0
 48
0.0
100
AcDbCircle
 10
14.58757176799321
 20
18.99376649645252
 30
0.0
 40
0.46875
  0
LINE
  5
1DE
330
48
100
AcDbEntity
  8
konin
  6
Continuous
 62
   250
 48
0.0
100
AcDbLine
 10
13.65007176799321
 20
18.99376649645252
 30
0.0
 11
13.65007176799321
 21
19.83751649645252
 31
0.0
210
0.0
220
0.0
230
0.0
  0
LINE
  5
1DF
330
48
100
AcDbEntity
  8
konin
  6
Continuous
 62
   250
 48
0.0
100
AcDbLine
 10
13.65007176799321
 20
18.99376649645252
 30
0.0
 11
13.65007176799321
 21
18.71251649645252
 31
0.0
210
0.0
220
0.0
230
0.0
  0
LINE
  5
1E0
330
48
100
AcDbEntity
  8
konin
  6
Continuous
 62
   250
 48
0.0
100
AcDbLine
 10
16.19827691500796
 20
16.47826856729672
 30
0.0
 11
16.46349907791091
 21
16.20750058297615
 31
0.0
210
0.0
220
0.0
230
0.0
  0
ARC
  5
1E1
330
48
100
AcDbEntity
  8
konin
  6
Continuous
 62
     0
 48
0.0
100
AcDbCircle
 10
15.79643541702421
 20
16.08465751498989
 30
0.0
 40
0.5624999999999117
100
AcDbArc
 50
44.40718906073384
 51
134.0730850131085
  0
LINE
  5
1E2
330
48
100
AcDbEntity
  8
konin
  6
Continuous
 62
   250
 48
0.0
100
AcDbLine
 10
17.68635144633793
 20
18.14999933031482
 30
0.0
 11
17.68635144633793
 21
18.71249933031482
 31
0.0
210
0.0
220
0.0
230
0.0
  0
LINE
  5
1E3
330
48
100
AcDbEntity
  8
konin
  6
Continuous
 62
   250
 48
0.0
100
AcDbLine
 10
16.93635144633793
 20
18.14999933031482
 30
0.0
 11
17.68635144633793
 21
18.14999933031482
 31
0.0
210
0.0
220
0.0
230
0.0
  0
LINE
  5
1E4
330
48
100
AcDbEntity
  8
konin
  6
Continuous
 62
   250
 48
0.0
100
AcDbLine
 10
16.18635144633793
 20
18.14999933031482
 30
0.0
 11
16.18635144633793
 21
18.71249933031482
 31
0.0
210
0.0
220
0.0
230
0.0
  0
LINE
  5
1E5
330
48
100
AcDbEntity
  8
konin
  6
Continuous
 62
   250
 48
0.0
100
AcDbLine
 10
16.93635144633793
 20
18.14999933031482
 30
0.0
 11
16.18635144633793
 21
18.14999933031482
 31
0.0
210
0.0
220
0.0
230
0.0
  0
LINE
  5
1E6
330
48
100
AcDbEntity
  8
konin
  6
Continuous
 62
   250
 48
0.0
100
AcDbLine
 10
16.93635144633793
 20
18.71249933031482
 30
0.0
 11
15.38306775493168
 21
18.71249933031482
 31
0.0
210
0.0
220
0.0
230
0.0
  0
LINE
  5
1E7
330
48
100
AcDbEntity
  8
konin
  6
Continuous
 62
   250
 48
0.0
100
AcDbLine
 10
42.79721248249098
 20
18.5972437849369
 30
0.0
 11
38.25971591571851
 21
19.8130812635746
 31
0.0
210
0.0
220
0.0
230
0.0
  0
LINE
  5
1E8
330
48
100
AcDbEntity
  8
konin
  6
Continuous
 62
   250
 48
0.0
100
AcDbLine
 10
40.23729503253981
 20
18.11848592666054
 30
0.0
 11
41.7376555214314
 21
17.71648359206581
 31
0.0
210
0.0
220
0.0
230
0.0
  0
LINE
  5
1E9
330
48
100
AcDbEntity
  8
konin
  6
Continuous
 62
   250
 48
0.0
100
AcDbLine
 10
30.99498927692457
 20
18.71681165603065
 30
0.0
 11
29.44169986347242
 21
18.71682882216835
 31
0.0
210
0.0
220
0.0
230
0.0
  0
LINE
  5
1EA
330
48
100
AcDbEntity
  8
konin
  6
Continuous
 62
   250
 48
0.0
100
AcDbLine
 10
33.34376895526929
 20
19.84182882216835
 30
0.0
 11
28.64620387653394
 21
19.84181165603065
 31
0.0
210
0.0
220
0.0
230
0.0
  0
ARC
  5
1EB
330
48
100
AcDbEntity
  8
konin
  6
Continuous
 62
     0
 48
0.0
100
AcDbCircle
 10
23.94863879779859
 20
18.99806165603065
 30
0.0
 40
0.843750809027891
100
AcDbArc
 50
199.4712012110168
 51
340.5287987889844
  0
CIRCLE
  5
1EC
330
48
100
AcDbEntity
  8
konin
  6
Continuous
 62
     0
 48
0.0
100
AcDbCircle
 10
23.94863879779859
 20
18.99806165603065
 30
0.0
 40
0.46875
  0
CIRCLE
  5
1ED
330
48
100
AcDbEntity
  8
konin
  6
Continuous
 62
     0
 48
0.0
100
AcDbCircle
 10
23.94863879779859
 20
18.99806165603065
 30
0.0
 40
0.46875
  0
ARC
  5
1EE
330
48
100
AcDbEntity
  8
konin
  6
Continuous
 62
     0
 48
0.0
100
AcDbCircle
 10
23.94863879779859
 20
18.99806165603065
 30
0.0
 40
0.8437500000000214
100
AcDbArc
 50
199.471201211015
 51
90.0
  0
CIRCLE
  5
1EF
330
48
100
AcDbEntity
  8
konin
  6
Continuous
 62
     0
 48
0.0
100
AcDbCircle
 10
23.94863879779859
 20
18.99806165603065
 30
0.0
 40
0.84375
  0
LINE
  5
1F0
330
48
100
AcDbEntity
  8
konin
  6
Continuous
 62
   250
 48
0.0
100
AcDbLine
 10
19.28513684672856
 20
19.83749933031482
 30
0.0
 11
23.98270192546391
 21
19.83749933031482
 31
0.0
210
0.0
220
0.0
230
0.0
  0
ARC
  5
1F1
330
48
100
AcDbEntity
  8
konin
  6
Continuous
 62
     0
 48
0.0
100
AcDbCircle
 10
23.98270192546391
 20
18.99374933031482
 30
0.0
 40
0.843750809027891
100
AcDbArc
 50
199.4712012110168
 51
340.5287987889831
  0
LINE
  5
1F2
330
48
100
AcDbEntity
  8
konin
  6
Continuous
 62
   250
 48
0.0
100
AcDbLine
 10
21.63391652507328
 20
18.14999933031482
 30
0.0
 11
20.88391652507329
 21
18.15001649645252
 31
0.0
210
0.0
220
0.0
230
0.0
  0
LINE
  5
1F3
330
48
100
AcDbEntity
  8
konin
  6
Continuous
 62
   250
 48
0.0
100
AcDbLine
 10
21.63391652507328
 20
18.71249933031482
 30
0.0
 11
20.08063283366703
 21
18.71251649645252
 31
0.0
210
0.0
220
0.0
230
0.0
  0
LINE
  5
1F4
330
48
100
AcDbEntity
  8
konin
  6
Continuous
 62
   250
 48
0.0
100
AcDbLine
 10
18.34763684672856
 20
18.99374933031482
 30
0.0
 11
18.34763684672856
 21
18.71249933031482
 31
0.0
210
0.0
220
0.0
230
0.0
  0
LINE
  5
1F5
330
48
100
AcDbEntity
  8
konin
  6
Continuous
 62
   250
 48
0.0
100
AcDbLine
 10
18.34763684672856
 20
18.99374933031482
 30
0.0
 11
18.34763684672856
 21
19.83749933031482
 31
0.0
210
0.0
220
0.0
230
0.0
  0
ARC
  5
1F6
330
48
100
AcDbEntity
  8
konin
  6
Continuous
 62
     0
 48
0.0
100
AcDbCircle
 10
19.28513684672856
 20
18.99374933031482
 30
0.0
 40
0.8437450871427007
100
AcDbArc
 50
199.4701021855451
 51
340.5298978144547
  0
CIRCLE
  5
1F7
330
48
100
AcDbEntity
  8
konin
  6
Continuous
 62
     0
 48
0.0
100
AcDbCircle
 10
19.28513684672856
 20
18.99374933031482
 30
0.0
 40
0.46875
  0
LINE
  5
1F8
330
48
100
AcDbEntity
  8
konin
  6
Continuous
 62
   250
 48
0.0
100
AcDbLine
 10
20.88391652507329
 20
18.15001649645252
 30
0.0
 11
20.88391652507329
 21
18.71251649645252
 31
0.0
210
0.0
220
0.0
230
0.0
  0
ARC
  5
1F9
330
48
100
AcDbEntity
  8
konin
  6
Continuous
 62
     0
 48
0.0
100
AcDbCircle
 10
19.28513684672856
 20
18.99374933031482
 30
0.0
 40
0.84375
100
AcDbArc
 50
90.0
 51
340.5300273278538
  0
CIRCLE
  5
1FA
330
48
100
AcDbEntity
  8
konin
  6
Continuous
 62
     0
 48
0.0
100
AcDbCircle
 10
19.28513684672856
 20
18.99374933031482
 30
0.0
 40
0.46875
  0
CIRCLE
  5
1FB
330
48
100
AcDbEntity
  8
konin
  6
Continuous
 62
     0
 48
0.0
100
AcDbCircle
 10
19.28513684672856
 20
18.99374933031482
 30
0.0
 40
0.84375
  0
LINE
  5
1FC
330
48
100
AcDbEntity
  8
konin
  6
Continuous
 62
   250
 48
0.0
100
AcDbLine
 10
23.04520192546391
 20
18.99374933031482
 30
0.0
 11
23.04520192546391
 21
18.71249933031482
 31
0.0
210
0.0
220
0.0
230
0.0
  0
LINE
  5
1FD
330
48
100
AcDbEntity
  8
konin
  6
Continuous
 62
   250
 48
0.0
100
AcDbLine
 10
23.04520192546391
 20
18.99374933031482
 30
0.0
 11
23.04520192546391
 21
19.83749933031482
 31
0.0
210
0.0
220
0.0
230
0.0
  0
LINE
  5
1FE
330
48
100
AcDbEntity
  8
konin
  6
Continuous
 62
   250
 48
0.0
100
AcDbLine
 10
22.38391652507329
 20
18.14999933031482
 30
0.0
 11
22.38391652507329
 21
18.71249933031482
 31
0.0
210
0.0
220
0.0
230
0.0
  0
LINE
  5
1FF
330
48
100
AcDbEntity
  8
konin
  6
Continuous
 62
   250
 48
0.0
100
AcDbLine
 10
21.63391652507328
 20
18.14999933031482
 30
0.0
 11
22.38391652507329
 21
18.14999933031482
 31
0.0
210
0.0
220
0.0
230
0.0
  0
LINE
  5
200
330
48
100
AcDbEntity
  8
konin
  6
Continuous
 62
   250
 48
0.0
100
AcDbLine
 10
21.63391652507328
 20
18.71249933031482
 30
0.0
 11
23.18720593852543
 21
18.71249933031482
 31
0.0
210
0.0
220
0.0
230
0.0
  0
LINE
  5
201
330
48
100
AcDbEntity
  8
konin
  6
Continuous
 62
   250
 48
0.0
100
AcDbLine
 10
26.29742419818922
 20
18.15431165603065
 30
0.0
 11
27.04742419818922
 21
18.15432882216835
 31
0.0
210
0.0
220
0.0
230
0.0
  0
LINE
  5
202
330
48
100
AcDbEntity
  8
konin
  6
Continuous
 62
   250
 48
0.0
100
AcDbLine
 10
26.29742419818922
 20
18.71681165603065
 30
0.0
 11
27.85070788959547
 21
18.71682882216835
 31
0.0
210
0.0
220
0.0
230
0.0
  0
LINE
  5
203
330
48
100
AcDbEntity
  8
konin
  6
Continuous
 62
   250
 48
0.0
100
AcDbLine
 10
28.64620387653394
 20
19.84181165603065
 30
0.0
 11
23.94863879779859
 21
19.84181165603065
 31
0.0
210
0.0
220
0.0
230
0.0
  0
LINE
  5
204
330
48
100
AcDbEntity
  8
konin
  6
Continuous
 62
   250
 48
0.0
100
AcDbLine
 10
24.88613879779859
 20
18.99806165603065
 30
0.0
 11
24.88613879779859
 21
18.71681165603065
 31
0.0
210
0.0
220
0.0
230
0.0
  0
LINE
  5
205
330
48
100
AcDbEntity
  8
konin
  6
Continuous
 62
   250
 48
0.0
100
AcDbLine
 10
24.88613879779859
 20
18.99806165603065
 30
0.0
 11
24.88613879779859
 21
19.84181165603065
 31
0.0
210
0.0
220
0.0
230
0.0
  0
LINE
  5
206
330
48
100
AcDbEntity
  8
konin
  6
Continuous
 62
   250
 48
0.0
100
AcDbLine
 10
25.54742419818921
 20
18.15431165603065
 30
0.0
 11
25.54742419818921
 21
18.71681165603065
 31
0.0
210
0.0
220
0.0
230
0.0
  0
LINE
  5
207
330
48
100
AcDbEntity
  8
konin
  6
Continuous
 62
   250
 48
0.0
100
AcDbLine
 10
26.29742419818922
 20
18.15431165603065
 30
0.0
 11
25.54742419818921
 21
18.15431165603065
 31
0.0
210
0.0
220
0.0
230
0.0
  0
LINE
  5
208
330
48
100
AcDbEntity
  8
konin
  6
Continuous
 62
   250
 48
0.0
100
AcDbLine
 10
26.29742419818922
 20
18.71681165603065
 30
0.0
 11
24.74413478473707
 21
18.71681165603065
 31
0.0
210
0.0
220
0.0
230
0.0
  0
LINE
  5
209
330
48
100
AcDbEntity
  8
konin
  6
Continuous
 62
   250
 48
0.0
100
AcDbLine
 10
29.58370387653394
 20
18.99806165603065
 30
0.0
 11
29.58370387653394
 21
18.71681165603065
 31
0.0
210
0.0
220
0.0
230
0.0
  0
LINE
  5
20A
330
48
100
AcDbEntity
  8
konin
  6
Continuous
 62
   250
 48
0.0
100
AcDbLine
 10
29.58370387653394
 20
18.99806165603065
 30
0.0
 11
29.58370387653394
 21
19.84181165603065
 31
0.0
210
0.0
220
0.0
230
0.0
  0
ARC
  5
20B
330
48
100
AcDbEntity
  8
konin
  6
Continuous
 62
     0
 48
0.0
100
AcDbCircle
 10
28.64620387653394
 20
18.99806165603065
 30
0.0
 40
0.8437450871427007
100
AcDbArc
 50
199.4701021855451
 51
340.5298978144547
  0
CIRCLE
  5
20C
330
48
100
AcDbEntity
  8
konin
  6
Continuous
 62
     0
 48
0.0
100
AcDbCircle
 10
28.64620387653394
 20
18.99806165603065
 30
0.0
 40
0.46875
  0
LINE
  5
20D
330
48
100
AcDbEntity
  8
konin
  6
Continuous
 62
   250
 48
0.0
100
AcDbLine
 10
27.04742419818922
 20
18.15432882216835
 30
0.0
 11
27.04742419818922
 21
18.71682882216835
 31
0.0
210
0.0
220
0.0
230
0.0
  0
ARC
  5
20E
330
48
100
AcDbEntity
  8
konin
  6
Continuous
 62
     0
 48
0.0
100
AcDbCircle
 10
28.64620387653394
 20
18.99806165603065
 30
0.0
 40
0.8437499999999976
100
AcDbArc
 50
199.469972672146
 51
90.0
  0
CIRCLE
  5
20F
330
48
100
AcDbEntity
  8
konin
  6
Continuous
 62
     0
 48
0.0
100
AcDbCircle
 10
28.64620387653394
 20
18.99806165603065
 30
0.0
 40
0.46875
  0
CIRCLE
  5
210
330
48
100
AcDbEntity
  8
konin
  6
Continuous
 62
     0
 48
0.0
100
AcDbCircle
 10
28.64620387653394
 20
18.99806165603065
 30
0.0
 40
0.84375
  0
LINE
  5
211
330
48
100
AcDbEntity
  8
konin
  6
Continuous
 62
   250
 48
0.0
100
AcDbLine
 10
35.08169072995878
 20
18.17701287299068
 30
0.0
 11
36.6204577183596
 21
18.17701287299068
 31
0.0
210
0.0
220
0.0
230
0.0
  0
LINE
  5
212
330
48
100
AcDbEntity
  8
konin
  6
Continuous
 62
   250
 48
0.0
100
AcDbLine
 10
35.99096477130933
 20
17.5751547804203
 30
0.0
 11
35.26651942829175
 21
17.38104009536171
 31
0.0
210
0.0
220
0.0
230
0.0
  0
LINE
  5
213
330
48
100
AcDbEntity
  8
konin
  6
Continuous
 62
   250
 48
0.0
100
AcDbLine
 10
38.04133403400465
 20
19.84181165603065
 30
0.0
 11
33.34376895526929
 21
19.84182882216835
 31
0.0
210
0.0
220
0.0
230
0.0
  0
LINE
  5
214
330
48
100
AcDbEntity
  8
konin
  6
Continuous
 62
   250
 48
0.0
100
AcDbLine
 10
35.84033925594894
 20
18.71682718892735
 30
0.0
 11
34.13926494220777
 21
18.71681165603065
 31
0.0
210
0.0
220
0.0
230
0.0
  0
ARC
  5
215
330
48
100
AcDbEntity
  8
konin
  6
Continuous
 62
     0
 48
0.0
100
AcDbCircle
 10
32.13490530623829
 20
16.08896984070573
 30
0.0
 40
0.5624999999998798
100
AcDbArc
 50
45.92691498690071
 51
135.5928109392692
  0
LINE
  5
216
330
48
100
AcDbEntity
  8
konin
  6
Continuous
 62
   250
 48
0.0
100
AcDbLine
 10
30.99498927692457
 20
18.71681165603065
 30
0.0
 11
32.54827296833082
 21
18.71681165603065
 31
0.0
210
0.0
220
0.0
230
0.0
  0
ARC
  5
217
330
48
100
AcDbEntity
  8
konin
  6
Continuous
 62
     0
 48
0.0
100
AcDbCircle
 10
33.34376895526929
 20
18.99807882216835
 30
0.0
 40
0.8437500000000468
100
AcDbArc
 50
199.4724297489332
 51
90.0
  0
CIRCLE
  5
218
330
48
100
AcDbEntity
  8
konin
  6
Continuous
 62
     0
 48
0.0
100
AcDbCircle
 10
33.34376895526929
 20
18.99807882216835
 30
0.0
 40
0.84375
  0
LINE
  5
219
330
48
100
AcDbEntity
  8
konin
  6
Continuous
 62
   250
 48
0.0
100
AcDbLine
 10
31.73306380825454
 20
16.48258089301253
 30
0.0
 11
31.46784164535159
 21
16.21181290869199
 31
0.0
210
0.0
220
0.0
230
0.0
  0
LINE
  5
21A
330
48
100
AcDbEntity
  8
konin
  6
Continuous
 62
   250
 48
0.0
100
AcDbLine
 10
30.24498927692457
 20
18.15431165603065
 30
0.0
 11
30.24498927692457
 21
18.71681165603065
 31
0.0
210
0.0
220
0.0
230
0.0
  0
LINE
  5
21B
330
48
100
AcDbEntity
  8
konin
  6
Continuous
 62
   250
 48
0.0
100
AcDbLine
 10
30.99498927692457
 20
18.15431165603065
 30
0.0
 11
30.24498927692457
 21
18.15431165603065
 31
0.0
210
0.0
220
0.0
230
0.0
  0
LINE
  5
21C
330
48
100
AcDbEntity
  8
konin
  6
Continuous
 62
   250
 48
0.0
100
AcDbLine
 10
31.74498927692457
 20
18.15431165603065
 30
0.0
 11
31.74498927692457
 21
18.71681165603065
 31
0.0
210
0.0
220
0.0
230
0.0
  0
LINE
  5
21D
330
48
100
AcDbEntity
  8
konin
  6
Continuous
 62
   250
 48
0.0
100
AcDbLine
 10
30.99498927692457
 20
18.15431165603065
 30
0.0
 11
31.74498927692457
 21
18.15431165603065
 31
0.0
210
0.0
220
0.0
230
0.0
  0
LINE
  5
21E
330
48
100
AcDbEntity
  8
konin
  6
Continuous
 62
   250
 48
0.0
100
AcDbLine
 10
35.12093341449781
 20
17.92438840773964
 30
0.0
 11
35.05398690433895
 21
18.15266871122851
 31
0.0
210
0.0
220
0.0
230
0.0
  0
LINE
  5
21F
330
48
100
AcDbEntity
  8
konin
  6
Continuous
 62
   250
 48
0.0
100
AcDbLine
 10
34.82522449100088
 20
18.17701287299068
 30
0.0
 11
34.82522449100088
 21
18.71257472493216
 31
0.0
210
0.0
220
0.0
230
0.0
  0
LINE
  5
220
330
48
100
AcDbEntity
  8
konin
  6
Continuous
 62
   250
 48
0.0
100
AcDbLine
 10
35.08169072995878
 20
18.17701287299068
 30
0.0
 11
34.82522449100088
 21
18.17701287299068
 31
0.0
210
0.0
220
0.0
230
0.0
  0
LINE
  5
221
330
48
100
AcDbEntity
  8
konin
  6
Continuous
 62
   250
 48
0.0
100
AcDbLine
 10
32.5261664554082
 20
16.49309972471614
 30
0.0
 11
32.97418206866308
 21
16.05935030250395
 31
0.0
210
0.0
220
0.0
230
0.0
  0
CIRCLE
  5
222
330
48
100
AcDbEntity
  8
konin
  6
Continuous
 62
     0
 48
0.0
100
AcDbCircle
 10
33.34376895526929
 20
18.99807882216835
 30
0.0
 40
0.46875
  0
LINE
  5
223
330
48
100
AcDbEntity
  8
konin
  6
Continuous
 62
   250
 48
0.0
100
AcDbLine
 10
32.96994769672437
 20
16.05512761977577
 30
0.0
 11
32.57220256427808
 21
16.45286130813026
 31
0.0
210
0.0
220
0.0
230
0.0
  0
ARC
  5
224
330
48
100
AcDbEntity
  8
konin
  6
Continuous
 62
     0
 48
0.0
100
AcDbCircle
 10
33.50383746723219
 20
17.78225850966835
 30
0.0
 40
0.8437498082445458
100
AcDbArc
 50
244.47136957847
 51
355.5277747140773
  0
LINE
  5
225
330
48
100
AcDbEntity
  8
konin
  6
Continuous
 62
   250
 48
0.0
100
AcDbLine
 10
35.26651942829175
 20
17.38104009536171
 30
0.0
 11
35.12093341449781
 21
17.92438840773964
 31
0.0
210
0.0
220
0.0
230
0.0
  0
ARC
  5
226
330
48
100
AcDbEntity
  8
konin
  6
Continuous
 62
     0
 48
0.0
100
AcDbCircle
 10
33.50383746723219
 20
17.78225850966835
 30
0.0
 40
0.8437496957873033
100
AcDbArc
 50
244.4713695784706
 51
358.2994029488478
  0
LINE
  5
227
330
48
100
AcDbEntity
  8
konin
  6
Continuous
 62
   250
 48
0.0
100
AcDbLine
 10
35.12093341449781
 20
17.92438840773964
 30
0.0
 11
34.34501826862379
 21
17.71646642592811
 31
0.0
210
0.0
220
0.0
230
0.0
  0
LINE
  5
228
330
48
100
AcDbEntity
  8
konin
  6
Continuous
 62
   250
 48
0.0
100
AcDbLine
 10
32.57220256427808
 20
16.45286130813026
 30
0.0
 11
33.14021289447828
 21
17.02088880446815
 31
0.0
210
0.0
220
0.0
230
0.0
  0
CIRCLE
  5
229
330
48
100
AcDbEntity
  8
konin
  6
Continuous
 62
     0
 48
0.0
100
AcDbCircle
 10
33.34376895526929
 20
18.99807882216835
 30
0.0
 40
0.46875
  0
ARC
  5
22A
330
48
100
AcDbEntity
  8
konin
  6
Continuous
 62
     0
 48
0.0
100
AcDbCircle
 10
33.34376895526929
 20
18.99807882216835
 30
0.0
 40
0.8437565312235223
100
AcDbArc
 50
199.4723002215821
 51
340.5276997784192
  0
LINE
  5
22B
330
48
100
AcDbEntity
  8
konin
  6
Continuous
 62
   250
 48
0.0
100
AcDbLine
 10
34.28126895526929
 20
18.99807882216835
 30
0.0
 11
34.28126895526929
 21
19.84182882216835
 31
0.0
210
0.0
220
0.0
230
0.0
  0
LINE
  5
22C
330
48
100
AcDbEntity
  8
konin
  6
Continuous
 62
   250
 48
0.0
100
AcDbLine
 10
34.28126895526929
 20
18.99807882216835
 30
0.0
 11
34.28126895526929
 21
18.71682882216835
 31
0.0
210
0.0
220
0.0
230
0.0
  0
CIRCLE
  5
22D
330
48
100
AcDbEntity
  8
konin
  6
Continuous
 62
     0
 48
0.0
100
AcDbCircle
 10
38.04133403400465
 20
18.99806165603065
 30
0.0
 40
0.46875
  0
ARC
  5
22E
330
48
100
AcDbEntity
  8
konin
  6
Continuous
 62
     0
 48
0.0
100
AcDbCircle
 10
38.04133403400465
 20
18.99806165603065
 30
0.0
 40
0.8437499999999976
100
AcDbArc
 50
199.469972672146
 51
90.0
  0
ARC
  5
22F
330
48
100
AcDbEntity
  8
konin
  6
Continuous
 62
     0
 48
0.0
100
AcDbCircle
 10
38.04133403400465
 20
18.99806165603065
 30
0.0
 40
0.8437518157665664
100
AcDbArc
 50
199.4699726721469
 51
75.00020243934575
  0
CIRCLE
  5
230
330
48
100
AcDbEntity
  8
konin
  6
Continuous
 62
     0
 48
0.0
100
AcDbCircle
 10
38.04133403400465
 20
18.99806165603065
 30
0.0
 40
0.46875
  0
CIRCLE
  5
231
330
48
100
AcDbEntity
  8
konin
  6
Continuous
 62
     0
 48
0.0
100
AcDbCircle
 10
38.04133403400465
 20
18.99806165603065
 30
0.0
 40
0.46875
  0
ARC
  5
232
330
48
100
AcDbEntity
  8
konin
  6
Continuous
 62
     0
 48
0.0
100
AcDbCircle
 10
38.04133403400465
 20
18.99806165603065
 30
0.0
 40
0.8437499999999976
100
AcDbArc
 50
199.469972672146
 51
90.0
  0
LINE
  5
233
330
48
100
AcDbEntity
  8
konin
  6
Continuous
 62
   250
 48
0.0
100
AcDbLine
 10
36.6204577183596
 20
18.17701287299068
 30
0.0
 11
36.6204577183596
 21
18.68670758204068
 31
0.0
210
0.0
220
0.0
230
0.0
  0
LINE
  5
234
330
48
100
AcDbEntity
  8
konin
  6
Continuous
 62
   250
 48
0.0
100
AcDbLine
 10
35.84033925594894
 20
18.71682718892735
 30
0.0
 11
37.24584376911207
 21
18.71681165603065
 31
0.0
210
0.0
220
0.0
230
0.0
  0
LINE
  5
235
330
48
100
AcDbEntity
  8
konin
  6
Continuous
 62
   250
 48
0.0
100
AcDbLine
 10
35.84033925594894
 20
18.71682718892735
 30
0.0
 11
35.84033925594894
 21
18.71682718892735
 31
0.0
210
0.0
220
0.0
230
0.0
  0
LINE
  5
236
330
48
100
AcDbEntity
  8
konin
  6
Continuous
 62
   250
 48
0.0
100
AcDbLine
 10
36.71541011432691
 20
17.7692694654789
 30
0.0
 11
36.56982410053297
 21
18.31261777785682
 31
0.0
210
0.0
220
0.0
230
0.0
  0
LINE
  5
237
330
48
100
AcDbEntity
  8
konin
  6
Continuous
 62
   250
 48
0.0
100
AcDbLine
 10
35.99096477130933
 20
17.5751547804203
 30
0.0
 11
36.71541011432691
 21
17.7692694654789
 31
0.0
210
0.0
220
0.0
230
0.0
  0
LINE
  5
238
330
48
100
AcDbEntity
  8
konin
  6
Continuous
 62
   250
 48
0.0
100
AcDbLine
 10
36.56982410053297
 20
18.31261777785682
 30
0.0
 11
37.34573924640699
 21
18.52050542739296
 31
0.0
210
0.0
220
0.0
230
0.0
  0
LINE
  5
239
330
48
100
AcDbEntity
  8
konin
  6
Continuous
 62
   250
 48
0.0
100
AcDbLine
 10
40.23729503253981
 20
18.11848592666054
 30
0.0
 11
38.7369345436482
 21
18.52052259353065
 31
0.0
210
0.0
220
0.0
230
0.0
  0
LINE
  5
23A
330
48
100
AcDbEntity
  8
konin
  6
Continuous
 62
   250
 48
0.0
100
AcDbLine
 10
40.09170901874585
 20
17.575171946558
 30
0.0
 11
40.81615436176344
 21
17.3810572614994
 31
0.0
210
0.0
220
0.0
230
0.0
  0
LINE
  5
23B
330
48
100
AcDbEntity
  8
konin
  6
Continuous
 62
   250
 48
0.0
100
AcDbLine
 10
40.81615436176344
 20
17.3810572614994
 30
0.0
 11
40.96174037555738
 21
17.92437124160194
 31
0.0
210
0.0
220
0.0
230
0.0
  0
LINE
  5
23C
330
48
100
AcDbEntity
  8
konin
  6
Continuous
 62
   250
 48
0.0
100
AcDbLine
 10
40.09170901874585
 20
17.575171946558
 30
0.0
 11
39.36726367572828
 21
17.76928663161659
 31
0.0
210
0.0
220
0.0
230
0.0
  0
LINE
  5
23D
330
48
100
AcDbEntity
  8
konin
  6
Continuous
 62
   250
 48
0.0
100
AcDbLine
 10
39.36726367572828
 20
17.76928663161659
 30
0.0
 11
39.51284968952222
 21
18.31260061171913
 31
0.0
210
0.0
220
0.0
230
0.0
  0
LINE
  5
23E
330
48
100
AcDbEntity
  8
konin
  6
Continuous
 62
   250
 48
0.0
100
AcDbLine
 10
38.94689357379957
 20
18.75541829970741
 30
0.0
 11
39.16526973346753
 21
19.57042074111366
 31
0.0
210
0.0
220
0.0
230
0.0
  0
LINE
  5
23F
330
48
100
AcDbEntity
  8
konin
  6
Continuous
 62
   250
 48
0.0
100
AcDbLine
 10
38.94689357379957
 20
18.75541829970741
 30
0.0
 11
38.87409770587964
 21
18.48375272658729
 31
0.0
210
0.0
220
0.0
230
0.0
  0
CIRCLE
  5
240
330
48
100
AcDbEntity
  8
konin
  6
Continuous
 62
     0
 48
0.0
100
AcDbCircle
 10
42.578836322823
 20
17.78224134353065
 30
0.0
 40
0.46875
  0
ARC
  5
241
330
48
100
AcDbEntity
  8
konin
  6
Continuous
 62
     0
 48
0.0
100
AcDbCircle
 10
42.578836322823
 20
17.78224134353065
 30
0.0
 40
0.8437518157666264
100
AcDbArc
 50
184.469870722611
 51
75.00020243934625
  0
LINE
  5
242
330
48
100
AcDbEntity
  8
konin
  6
Continuous
 62
   250
 48
0.0
100
AcDbLine
 10
43.24174678424879
 20
17.11933088210487
 30
0.0
 11
43.04287707904859
 21
16.92047262099647
 31
0.0
210
0.0
220
0.0
230
0.0
  0
LINE
  5
243
330
48
100
AcDbEntity
  8
konin
  6
Continuous
 62
   250
 48
0.0
100
AcDbLine
 10
43.24174678424879
 20
17.11933088210487
 30
0.0
 11
43.83837306598707
 21
17.71595144179725
 31
0.0
210
0.0
220
0.0
230
0.0
  0
LINE
  5
244
330
48
100
AcDbEntity
  8
konin
  6
Continuous
 62
   250
 48
0.0
100
AcDbLine
 10
43.11272609333082
 20
16.05511045363807
 30
0.0
 11
43.5104712257771
 21
16.45287847426796
 31
0.0
210
0.0
220
0.0
230
0.0
  0
LINE
  5
245
330
48
100
AcDbEntity
  8
konin
  6
Continuous
 62
   250
 48
0.0
100
AcDbLine
 10
44.04080188373609
 20
15.92254781630897
 30
0.0
 11
42.94246089557691
 21
17.02087163833046
 31
0.0
210
0.0
220
0.0
230
0.0
  0
ARC
  5
246
330
48
100
AcDbEntity
  8
konin
  6
Continuous
 62
     0
 48
0.0
100
AcDbCircle
 10
42.578836322823
 20
17.78224134353065
 30
0.0
 40
0.8437518157666264
100
AcDbArc
 50
184.469870722611
 51
75.00020243934625
  0
CIRCLE
  5
247
330
48
100
AcDbEntity
  8
konin
  6
Continuous
 62
     0
 48
0.0
100
AcDbCircle
 10
42.578836322823
 20
17.78224134353065
 30
0.0
 40
0.46875
  0
ENDBLK
  5
249
330
48
100
AcDbEntity
  8
0
100
AcDbBlockEnd
  0
BLOCK
  5
27E
330
24A
100
AcDbEntity
  8
0
100
AcDbBlockBegin
  2
SCANHOV
 70
     2
 10
0.0
 20
0.0
 30
0.0
  3
SCANHOV
  1

  0
LINE
  5
24B
330
24A
100
AcDbEntity
  8
KONTUR
100
AcDbLine
 10
-140.0
 20
40.0
 30
0.0
 11
-60.00000000000006
 21
40.0
 31
0.0
  0
LINE
  5
24C
330
24A
100
AcDbEntity
  8
KONTUR
100
AcDbLine
 10
-170.0
 20
50.00000000000001
 30
0.0
 11
-0.0000000000000284
 21
50.0
 31
0.0
  0
LINE
  5
24D
330
24A
100
AcDbEntity
  8
KONTUR
100
AcDbLine
 10
-170.0
 20
0.0
 30
0.0
 11
0.0
 21
0.0
 31
0.0
  0
LINE
  5
24E
330
24A
100
AcDbEntity
  8
KONTUR
100
AcDbLine
 10
-140.0
 20
10.00000000000001
 30
0.0
 11
0.0
 21
10.0
 31
0.0
  0
LINE
  5
24F
330
24A
100
AcDbEntity
  8
KONTUR
100
AcDbLine
 10
-170.0
 20
20.0
 30
0.0
 11
-0.0000000000000284
 21
20.0
 31
0.0
  0
LINE
  5
250
330
24A
100
AcDbEntity
  8
KONTUR
100
AcDbLine
 10
-140.0
 20
30.0
 30
0.0
 11
-0.0000000000000284
 21
30.0
 31
0.0
  0
TEXT
  5
251
330
24A
100
AcDbEntity
  8
KONTEKST
100
AcDbText
 10
-99.05101281606572
 20
36.17232742477894
 30
0.0
 40
2.5
  1
Materiale dim.
100
AcDbText
  0
LINE
  5
252
330
24A
100
AcDbEntity
  8
KONTUR
100
AcDbLine
 10
-170.0
 20
0.0
 30
0.0
 11
-170.0
 21
50.00000000000001
 31
0.0
  0
LINE
  5
253
330
24A
100
AcDbEntity
  8
KONTUR
100
AcDbLine
 10
-140.0
 20
0.0
 30
0.0
 11
-140.0
 21
50.00000000000001
 31
0.0
  0
TEXT
  5
254
330
24A
100
AcDbEntity
  8
KONTEKST
100
AcDbText
 10
-166.1260605170411
 20
26.46274839833282
 30
0.0
 40
1.399999999999999
  1
VANDVÆRKSVEJ 19
100
AcDbText
  0
TEXT
  5
255
330
24A
100
AcDbEntity
  8
KONTEKST
100
AcDbText
 10
-139.0528832224067
 20
26.47575520686475
 30
0.0
 40
2.449999999999999
  1
Støbemaskine nr.
100
AcDbText
  0
TEXT
  5
256
330
24A
100
AcDbEntity
  8
KONTEKST
100
AcDbText
 10
-166.027144030168
 20
23.47348227336464
 30
0.0
 40
1.399999999999999
  1
DK-9800 HJØRRING.
100
AcDbText
  0
TEXT
  5
257
330
24A
100
AcDbEntity
  8
KONTEKST
100
AcDbText
 10
-168.8611371083023
 20
12.06329043293268
 30
0.0
 40
2.449999999999999
  1
Sign. / Dato
100
AcDbText
  0
TEXT
  5
258
330
24A
100
AcDbEntity
  8
KONTEKST
100
AcDbText
 10
-168.9041140591583
 20
16.13741330535676
 30
0.0
 40
2.449999999999999
  1
Godk.af prod.
100
AcDbText
  0
TEXT
  5
259
330
24A
100
AcDbEntity
  8
KONTEKST
100
AcDbText
 10
-138.8242144287903
 20
16.22717214765954
 30
0.0
 40
2.449999999999999
  1
Emne tegnings nr.
100
AcDbText
  0
TEXT
  5
25A
330
24A
100
AcDbEntity
  8
KONTEKST
100
AcDbText
 10
-139.0528832224067
 20
6.65524445641661
 30
0.0
 40
2.449999999999999
  1
Samlings tegning nr.
100
AcDbText
  0
ATTDEF
  5
25B
330
24A
100
AcDbEntity
  8
KONTEKST
100
AcDbText
 10
-139.0370600866915
 20
0.9315782627548259
 30
0.0
 40
2.5
  1

100
AcDbAttributeDefinition
  3
Samlingstegning nr.
  2
TEGN13
 70
     0
  0
ATTDEF
  5
25C
330
24A
100
AcDbEntity
  8
KONTEKST
100
AcDbText
 10
-139.1037600866914
 20
21.04957274721533
 30
0.0
 40
2.5
  1

100
AcDbAttributeDefinition
  3
Mask.nr.
  2
TGN1
 70
     0
  0
ATTDEF
  5
25D
330
24A
100
AcDbEntity
  8
KONTEKST
100
AcDbText
 10
-139.0370600866915
 20
10.91387826275482
 30
0.0
 40
2.5
  1

100
AcDbAttributeDefinition
  3
Emnetegning
  2
TGN12
 70
     0
  0
INSERT
  5
25E
330
24A
100
AcDbEntity
  8
0
100
AcDbBlockReference
  2
A$C5A270E3C
 10
-168.3227300945057
 20
36.42747156795302
 30
0.0
 41
0.5400000000000001
 42
0.5400000000000001
 43
0.5400000000000001
  0
TEXT
  5
25F
330
24A
100
AcDbEntity
  8
KONTEKST
100
AcDbText
 10
-165.7833807327795
 20
29.92454187817079
 30
0.0
 40
2.625
  1
SCANBELT.
100
AcDbText
  0
TEXT
  5
260
330
24A
100
AcDbEntity
  8
KONTEKST
100
AcDbText
 10
-138.8242144287903
 20
46.22717214765955
 30
0.0
 40
2.449999999999999
  1
Varetype.
100
AcDbText
  0
ATTDEF
  5
261
330
24A
100
AcDbEntity
  8
KONTEKST
100
AcDbText
 10
-139.1037600866914
 20
40.76101838200938
 30
0.0
 40
2.5
  1

100
AcDbAttributeDefinition
  3
Varetype.
  2
TGN2
 70
     0
  0
TEXT
  5
262
330
24A
100
AcDbEntity
  8
KONTEKST
100
AcDbText
 10
-139.0528832224067
 20
36.65524445641662
 30
0.0
 40
2.449999999999999
  1
Ståltype.
100
AcDbText
  0
ATTDEF
  5
263
330
24A
100
AcDbEntity
  8
KONTEKST
100
AcDbText
 10
-139.1610513464341
 20
30.86676902589921
 30
0.0
 40
2.5
  1

100
AcDbAttributeDefinition
  3
Ståltype.
  2
TGN10
 70
     0
  0
LINE
  5
264
330
24A
100
AcDbEntity
  8
KONTUR
100
AcDbLine
 10
-100.0487917207031
 20
29.86550984007924
 30
0.0
 11
-100.0487917207031
 21
39.86550984007924
 31
0.0
  0
ATTDEF
  5
265
330
24A
100
AcDbEntity
  8
KONTEKST
100
AcDbText
 10
-99.0510426156316
 20
30.70037886597846
 30
0.0
 40
2.5
  1

100
AcDbAttributeDefinition
  3
Materiale dim.
  2
TGN11
 70
     0
  0
LINE
  5
266
330
24A
100
AcDbEntity
  8
KONTUR
100
AcDbLine
 10
0.0
 20
20.0
 30
0.0
 11
0.0
 21
50.00000000000001
 31
0.0
  0
LINE
  5
267
330
24A
100
AcDbEntity
  8
KONTUR
100
AcDbLine
 10
-60.0000000000001
 20
-0.0000000000000036
 30
0.0
 11
-60.00000000000003
 21
50.0
 31
0.0
  0
TEXT
  5
268
330
24A
100
AcDbEntity
  8
KONTEKST
100
AcDbText
 10
-58.72720559711073
 20
26.45838652461984
 30
0.0
 40
2.449999999999999
  1
Målf.
100
AcDbText
  0
ATTDEF
  5
269
330
24A
100
AcDbEntity
  8
KONTEKST
100
AcDbText
 10
-58.98636008669147
 20
0.9472901893882834
 30
0.0
 40
2.5
  1

100
AcDbAttributeDefinition
  3
tegnings nr.
  2
TGN9
 70
     0
  0
TEXT
  5
26A
330
24A
100
AcDbEntity
  8
KONTEKST
100
AcDbText
 10
-58.88859488450009
 20
6.560609987704808
 30
0.0
 40
2.449999999999999
  1
Tegn. nr.
100
AcDbText
  0
ATTDEF
  5
26B
330
24A
100
AcDbEntity
  8
KONTEKST
100
AcDbText
 10
-58.79724922938567
 20
20.89856833439208
 30
0.0
 40
2.5
  1

100
AcDbAttributeDefinition
  3
Måleforhold.
  2
TEGN6
 70
     0
  0
ATTDEF
  5
26C
330
24A
100
AcDbEntity
  8
KONTEKST
100
AcDbText
 10
-58.96066443336819
 20
11.2290619967672
 30
0.0
 40
2.5
  1

100
AcDbAttributeDefinition
  3
Grundtegn.nr.
  2
TGN8
 70
     0
  0
TEXT
  5
26D
330
24A
100
AcDbEntity
  8
KONTEKST
100
AcDbText
 10
-59.09293625201034
 20
16.71314978317577
 30
0.0
 40
2.449999999999999
  1
Grund tegn. nr.
100
AcDbText
  0
LINE
  5
26E
330
24A
100
AcDbEntity
  8
KONTUR
100
AcDbLine
 10
0.0
 20
0.0
 30
0.0
 11
-0.0000000000000284
 21
20.0
 31
0.0
  0
LINE
  5
26F
330
24A
100
AcDbEntity
  8
KONCENTER
100
AcDbLine
 10
-1.668130796215564
 20
0.0
 30
0.0
 11
0.0
 21
0.0
 31
0.0
  0
LINE
  5
270
330
24A
100
AcDbEntity
  8
KONTUR
100
AcDbLine
 10
-1.668130796215564
 20
0.0
 30
0.0
 11
-0.0000000000000284
 21
0.0
 31
0.0
  0
LINE
  5
271
330
24A
100
AcDbEntity
  8
KONKORT
100
AcDbLine
 10
-1.668130796215564
 20
0.0
 30
0.0
 11
-0.0000000000000284
 21
0.0
 31
0.0
  0
LINE
  5
272
330
24A
100
AcDbEntity
  8
KONMAAL
100
AcDbLine
 10
-1.668130796215564
 20
0.0
 30
0.0
 11
0.0
 21
0.0
 31
0.0
  0
LINE
  5
273
330
24A
100
AcDbEntity
  8
KONSKRAV
100
AcDbLine
 10
-1.668130796215564
 20
0.0
 30
0.0
 11
0.0
 21
0.0
 31
0.0
  0
LINE
  5
274
330
24A
100
AcDbEntity
  8
KONTEKST
100
AcDbLine
 10
-1.668130796215564
 20
0.0
 30
0.0
 11
-0.0000000000000284
 21
0.0
 31
0.0
  0
TEXT
  5
275
330
24A
100
AcDbEntity
  8
KONTEKST
100
AcDbText
 10
-28.03618857398916
 20
36.63098119881117
 30
0.0
 40
2.449999999999999
  1
Opgrad.sign.
100
AcDbText
  0
TEXT
  5
276
330
24A
100
AcDbEntity
  8
KONTEKST
100
AcDbText
 10
-29.08511457134332
 20
46.35500406467296
 30
0.0
 40
2.449999999999999
  1
Opgrad. Dato.
100
AcDbText
  0
ATTDEF
  5
277
330
24A
100
AcDbEntity
  8
KONTEKST
100
AcDbText
 10
-29.20755018984513
 20
40.79958959311561
 30
0.0
 40
2.5
  1

100
AcDbAttributeDefinition
  3
Opgrad. dato
  2
TGN3
 70
     0
  0
ATTDEF
  5
278
330
24A
100
AcDbEntity
  8
KONTEKST
100
AcDbText
 10
-28.2238495192694
 20
31.01766140049464
 30
0.0
 40
2.5
  1

100
AcDbAttributeDefinition
  3
opgd.sign.
  2
TGN4
 70
     0
  0
ATTDEF
  5
279
330
24A
100
AcDbEntity
  8
KONTEKST
100
AcDbText
 10
-58.98636008669147
 20
31.04279018938828
 30
0.0
 40
2.5
  1

100
AcDbAttributeDefinition
  3
Sign.
  2
TEGN7
 70
     0
  0
TEXT
  5
27A
330
24A
100
AcDbEntity
  8
KONTEKST
100
AcDbText
 10
-58.98631645441657
 20
36.60260837961604
 30
0.0
 40
2.449999999999999
  1
Sign.
100
AcDbText
  0
TEXT
  5
27B
330
24A
100
AcDbEntity
  8
KONTEKST
100
AcDbText
 10
-58.99624130838152
 20
46.53629397702263
 30
0.0
 40
2.449999999999999
  1
Dato.
100
AcDbText
  0
ATTDEF
  5
27C
330
24A
100
AcDbEntity
  8
KONTEKST
100
AcDbText
 10
-58.80386008669148
 20
41.07459018938827
 30
0.0
 40
2.5
  1

100
AcDbAttributeDefinition
  3
Dato
  2
TEGN5
 70
     0
  0
LINE
  5
27D
330
24A
100
AcDbEntity
  8
KONTUR
100
AcDbLine
 10
-30.04334542850191
 20
30.0
 30
0.0
 11
-30.04334542850191
 21
49.99999999999999
 31
0.0
  0
ENDBLK
  5
27F
330
24A
100
AcDbEntity
  8
0
100
AcDbBlockEnd
  0
ENDSEC
  0
SECTION
  2
ENTITIES
  0
LINE
  5
1C6B
330
1F
100
AcDbEntity
  8
KONTUR
 48
10.0
100
AcDbLine
 10
44.4708352026928
 20
222.6676543021021
 30
0.0
 11
44.4708352026928
 21
40.66765430210216
 31
0.0
  0
LINE
  5
1C6C
330
1F
100
AcDbEntity
  8
KONTUR
 48
10.0
100
AcDbLine
 10
289.4708352026936
 20
222.6676543021021
 30
0.0
 11
289.4708352026936
 21
90.66765430210216
 31
0.0
  0
LINE
  5
1C9A
330
1F
100
AcDbEntity
  8
KONCENTER
 48
10.0
100
AcDbLine
 10
88.38187746301082
 20
138.9382275625133
 30
0.0
 11
98.08186250310974
 21
138.9382275625133
 31
0.0
  0
LINE
  5
1C9B
330
1F
100
AcDbEntity
  8
KONKORT
 48
10.0
100
AcDbLine
 10
88.38187746301082
 20
140.9382275625134
 30
0.0
 11
98.08186250310974
 21
140.9382275625134
 31
0.0
  0
LINE
  5
1C9C
330
1F
100
AcDbEntity
  8
KONKORT
 48
10.0
100
AcDbLine
 10
88.67988486094146
 20
136.9382275625134
 30
0.0
 11
97.80207987000085
 21
136.9382275625134
 31
0.0
  0
ARC
  5
1C9D
330
1F
100
AcDbEntity
  8
KONTUR
 48
10.0
100
AcDbCircle
 10
94.79727278222298
 20
143.9087928669996
 30
0.0
 40
1.5
100
AcDbArc
 50
328.8502981073516
 51
90.0
  0
ARC
  5
1C9E
330
1F
100
AcDbEntity
  8
KONTUR
 48
10.0
100
AcDbCircle
 10
93.20142805625255
 20
140.7275460000939
 30
0.0
 40
2.209129667283376
100
AcDbArc
 50
180.0
 51
0.0
  0
LINE
  5
1C9F
330
1F
100
AcDbEntity
  8
KONTUR
 48
10.0
100
AcDbLine
 10
89.56054534112263
 20
147.4087928669991
 30
0.0
 11
96.84231077138248
 21
147.4087928669991
 31
0.0
  0
LINE
  5
1CA0
330
1F
100
AcDbEntity
  8
KONTUR
 48
10.0
100
AcDbLine
 10
95.27086090416856
 20
134.6050899738818
 30
0.0
 11
91.13199520833655
 21
134.6050899738818
 31
0.0
  0
LINE
  5
1CA4
330
1F
100
AcDbEntity
  8
KONTUR
 48
10.0
100
AcDbLine
 10
44.4708352026928
 20
40.66765430210216
 30
0.0
 11
119.4708352026927
 21
40.66765430210216
 31
0.0
  0
LINE
  5
1D83
330
1F
100
AcDbEntity
  8
KONTUR
 48
10.0
100
AcDbLine
 10
68.06054534112263
 20
150.6050899738788
 30
0.0
 11
67.23831544404584
 21
153.46442635322
 31
0.0
  0
LINE
  5
1D84
330
1F
100
AcDbEntity
  8
KONTUR
 48
10.0
100
AcDbLine
 10
58.34231077138247
 20
150.6050899738813
 30
0.0
 11
59.16454066845926
 21
153.4644263532202
 31
0.0
  0
ARC
  5
1D85
330
1F
100
AcDbEntity
  8
KONTUR
 48
10.0
100
AcDbCircle
 10
63.20142805625255
 20
148.9826339476693
 30
0.0
 40
2.209129667283376
100
AcDbArc
 50
0.0
 51
180.0
  0
LINE
  5
1D86
330
1F
100
AcDbEntity
  8
KONTUR
 48
10.0
100
AcDbLine
 10
88.06054534112263
 20
150.6050899738788
 30
0.0
 11
87.23831544404584
 21
153.46442635322
 31
0.0
  0
LINE
  5
1D87
330
1F
100
AcDbEntity
  8
KONTUR
 48
10.0
100
AcDbLine
 10
78.34231077138247
 20
150.6050899738813
 30
0.0
 11
79.16454066845926
 21
153.4644263532202
 31
0.0
  0
ARC
  5
1D88
330
1F
100
AcDbEntity
  8
KONTUR
 48
10.0
100
AcDbCircle
 10
83.20142805625255
 20
148.9826339476693
 30
0.0
 40
2.209129667283376
100
AcDbArc
 50
0.0
 51
180.0
  0
LINE
  5
1D89
330
1F
100
AcDbEntity
  8
KONKORT
 48
10.0
100
AcDbLine
 10
58.38186508060153
 20
149.4382275625135
 30
0.0
 11
68.0818501206968
 21
149.4382275625134
 31
0.0
  0
LINE
  5
1D8A
330
1F
100
AcDbEntity
  8
KONTUR
 48
10.0
100
AcDbLine
 10
66.84231077138247
 20
142.301387080764
 30
0.0
 11
59.56054534112263
 21
142.301387080764
 31
0.0
  0
LINE
  5
1D8B
330
1F
100
AcDbEntity
  8
KONTUR
 48
10.0
100
AcDbLine
 10
61.60558333028212
 20
144.3013870807637
 30
0.0
 11
64.7972727822239
 21
144.3013870807637
 31
0.0
  0
LINE
  5
1D8C
330
1F
100
AcDbEntity
  8
KONTUR
 48
10.0
100
AcDbLine
 10
53.20142805625255
 20
134.6050899738818
 30
0.0
 11
53.20142805625255
 21
138.5184163328106
 31
0.0
  0
ARC
  5
1D8D
330
1F
100
AcDbEntity
  8
KONTUR
 48
10.0
100
AcDbCircle
 10
55.27086090416855
 20
136.6050899738818
 30
0.0
 40
2.0
100
AcDbArc
 50
270.0000000000008
 51
349.6495666055198
  0
LINE
  5
1D8E
330
1F
100
AcDbEntity
  8
KONTUR
 48
10.0
100
AcDbLine
 10
55.27086090416855
 20
134.6050899738818
 30
0.0
 11
53.20142805625255
 21
134.6050899738818
 31
0.0
  0
LINE
  5
1D8F
330
1F
100
AcDbEntity
  8
KONCENTER
 48
10.0
100
AcDbLine
 10
53.81415499679497
 20
138.9382275625134
 30
0.0
 11
58.08186250310973
 21
138.9382275625133
 31
0.0
  0
LINE
  5
1D90
330
1F
100
AcDbEntity
  8
KONKORT
 48
10.0
100
AcDbLine
 10
55.40716113360213
 20
140.9382275625134
 30
0.0
 11
58.08186250310973
 21
140.9382275625134
 31
0.0
  0
LINE
  5
1D91
330
1F
100
AcDbEntity
  8
KONKORT
 48
10.0
100
AcDbLine
 10
53.18165090164348
 20
136.9382275625134
 30
0.0
 11
57.80207987000085
 21
136.9382275625134
 31
0.0
  0
LINE
  5
1D92
330
1F
100
AcDbEntity
  8
KONTUR
 48
10.0
100
AcDbLine
 10
53.20142805625255
 20
145.4087928669994
 30
0.0
 11
53.20142805625255
 21
147.4087928669991
 31
0.0
  0
LINE
  5
1D93
330
1F
100
AcDbEntity
  8
KONTUR
 48
10.0
100
AcDbLine
 10
58.06054534112263
 20
139.1050899738819
 30
0.0
 11
57.23831544404584
 21
136.2457535945429
 31
0.0
  0
ARC
  5
1D94
330
1F
100
AcDbEntity
  8
KONTUR
 48
10.0
100
AcDbCircle
 10
59.56054534112263
 20
140.801387080764
 30
0.0
 40
1.5
100
AcDbArc
 50
90.0
 51
180.0
  0
LINE
  5
1D95
330
1F
100
AcDbEntity
  8
KONTUR
 48
10.0
100
AcDbLine
 10
58.06054534112263
 20
140.801387080764
 30
0.0
 11
58.06054534112263
 21
139.1050899738819
 31
0.0
  0
ARC
  5
1D96
330
1F
100
AcDbEntity
  8
KONTUR
 48
10.0
100
AcDbCircle
 10
56.34229838896999
 20
148.9826339476694
 30
0.0
 40
4.65
100
AcDbArc
 50
328.8502981073412
 51
0.0
  0
ARC
  5
1D97
330
1F
100
AcDbEntity
  8
KONTUR
 48
10.0
100
AcDbCircle
 10
61.60558333028212
 20
145.8013870807636
 30
0.0
 40
1.5
100
AcDbArc
 50
148.8502981073516
 51
270.0
  0
ARC
  5
1D98
330
1F
100
AcDbEntity
  8
KONTUR
 48
10.0
100
AcDbCircle
 10
54.79727278222298
 20
143.9087928669996
 30
0.0
 40
1.5
100
AcDbArc
 50
328.8502981073516
 51
90.0
  0
ARC
  5
1D99
330
1F
100
AcDbEntity
  8
KONTUR
 48
10.0
100
AcDbCircle
 10
53.20142805625255
 20
140.7275460000939
 30
0.0
 40
2.209129667283376
100
AcDbArc
 50
269.9999999999983
 51
0.0
  0
LINE
  5
1D9A
330
1F
100
AcDbEntity
  8
KONTUR
 48
10.0
100
AcDbLine
 10
54.79727278222298
 20
145.4087928669996
 30
0.0
 11
53.20142805625255
 21
145.4087928669995
 31
0.0
  0
ARC
  5
1D9B
330
1F
100
AcDbEntity
  8
KONTUR
 48
10.0
100
AcDbCircle
 10
60.06055772353511
 20
140.7275460000939
 30
0.0
 40
4.65
100
AcDbArc
 50
148.8502981073412
 51
180.0
  0
ARC
  5
1D9C
330
1F
100
AcDbEntity
  8
KONTUR
 48
10.0
100
AcDbCircle
 10
56.84231077138247
 20
148.9087928669991
 30
0.0
 40
1.5
100
AcDbArc
 50
270.0
 51
0.0
  0
LINE
  5
1D9D
330
1F
100
AcDbEntity
  8
KONTUR
 48
10.0
100
AcDbLine
 10
58.34231077138247
 20
148.9087928669991
 30
0.0
 11
58.34231077138247
 21
150.6050899738813
 31
0.0
  0
LINE
  5
1D9E
330
1F
100
AcDbEntity
  8
KONTUR
 48
10.0
100
AcDbLine
 10
53.20142805625255
 20
147.4087928669993
 30
0.0
 11
56.84231077138247
 21
147.4087928669991
 31
0.0
  0
ARC
  5
1D9F
330
1F
100
AcDbEntity
  8
KONTUR
 48
10.0
100
AcDbCircle
 10
75.27086090416855
 20
136.6050899738818
 30
0.0
 40
2.0
100
AcDbArc
 50
270.0000000000008
 51
349.6495666055198
  0
ARC
  5
1DA0
330
1F
100
AcDbEntity
  8
KONTUR
 48
10.0
100
AcDbCircle
 10
71.13199520833655
 20
136.6050899738818
 30
0.0
 40
2.0
100
AcDbArc
 50
190.3504333944702
 51
270.0000000000008
  0
ARC
  5
1DA1
330
1F
100
AcDbEntity
  8
KONTUR
 48
10.0
100
AcDbCircle
 10
91.13199520833655
 20
136.6050899738818
 30
0.0
 40
2.0
100
AcDbArc
 50
190.3504333944702
 51
270.0000000000008
  0
LINE
  5
1DA2
330
1F
100
AcDbEntity
  8
KONTUR
 48
10.0
100
AcDbLine
 10
75.27086090416855
 20
134.6050899738818
 30
0.0
 11
71.13199520833655
 21
134.6050899738818
 31
0.0
  0
LINE
  5
1DA3
330
1F
100
AcDbEntity
  8
KONKORT
 48
10.0
100
AcDbLine
 10
78.38186508060153
 20
149.4382275625135
 30
0.0
 11
88.0818501206968
 21
149.4382275625134
 31
0.0
  0
ARC
  5
1DA4
330
1F
100
AcDbEntity
  8
KONTUR
 48
10.0
100
AcDbCircle
 10
79.56054534112263
 20
140.801387080764
 30
0.0
 40
1.5
100
AcDbArc
 50
90.0
 51
180.0
  0
LINE
  5
1DA5
330
1F
100
AcDbEntity
  8
KONCENTER
 48
10.0
100
AcDbLine
 10
68.38187746301082
 20
138.9382275625133
 30
0.0
 11
78.08186250310973
 21
138.9382275625133
 31
0.0
  0
LINE
  5
1DA6
330
1F
100
AcDbEntity
  8
KONKORT
 48
10.0
100
AcDbLine
 10
68.38187746301082
 20
140.9382275625134
 30
0.0
 11
78.08186250310973
 21
140.9382275625134
 31
0.0
  0
LINE
  5
1DA7
330
1F
100
AcDbEntity
  8
KONKORT
 48
10.0
100
AcDbLine
 10
68.67988486094145
 20
136.9382275625134
 30
0.0
 11
77.80207987000085
 21
136.9382275625134
 31
0.0
  0
ARC
  5
1DA8
330
1F
100
AcDbEntity
  8
KONTUR
 48
10.0
100
AcDbCircle
 10
69.56054534112263
 20
149.0425422716915
 30
0.0
 40
1.5
100
AcDbArc
 50
180.0
 51
219.9005516681941
  0
ARC
  5
1DA9
330
1F
100
AcDbEntity
  8
KONTUR
 48
10.0
100
AcDbCircle
 10
69.66863683637007
 20
148.9087928669991
 30
0.0
 40
1.5
100
AcDbArc
 50
217.9872613036091
 51
270.0
  0
ARC
  5
1DAA
330
1F
100
AcDbEntity
  8
KONTUR
 48
10.0
100
AcDbCircle
 10
65.60967661656468
 20
145.7390386282539
 30
0.0
 40
3.649999999999999
100
AcDbArc
 50
37.98726130360943
 51
39.90055166819321
  0
ARC
  5
1DAB
330
1F
100
AcDbEntity
  8
KONTUR
 48
10.0
100
AcDbCircle
 10
66.84231077138247
 20
140.801387080764
 30
0.0
 40
1.5
100
AcDbArc
 50
0.0
 51
90.0
  0
LINE
  5
1DAC
330
1F
100
AcDbEntity
  8
KONTUR
 48
10.0
100
AcDbLine
 10
68.06054534112263
 20
149.0425422716915
 30
0.0
 11
68.06054534112263
 21
150.6050899738813
 31
0.0
  0
ARC
  5
1DAD
330
1F
100
AcDbEntity
  8
KONTUR
 48
10.0
100
AcDbCircle
 10
64.7972727822239
 20
145.8013870807636
 30
0.0
 40
1.5
100
AcDbArc
 50
270.0
 51
31.14970189264837
  0
ARC
  5
1DAE
330
1F
100
AcDbEntity
  8
KONTUR
 48
10.0
100
AcDbCircle
 10
70.06055772353602
 20
148.9826339476694
 30
0.0
 40
4.65
100
AcDbArc
 50
180.0
 51
211.1497018926587
  0
LINE
  5
1DAF
330
1F
100
AcDbEntity
  8
KONTUR
 48
10.0
100
AcDbLine
 10
78.06054534112263
 20
139.1050899738819
 30
0.0
 11
77.23831544404584
 21
136.2457535945429
 31
0.0
  0
LINE
  5
1DB0
330
1F
100
AcDbEntity
  8
KONTUR
 48
10.0
100
AcDbLine
 10
68.34231077138247
 20
139.1050899738819
 30
0.0
 11
69.16454066845926
 21
136.2457535945429
 31
0.0
  0
LINE
  5
1DB1
330
1F
100
AcDbEntity
  8
KONTUR
 48
10.0
100
AcDbLine
 10
78.06054534112263
 20
140.801387080764
 30
0.0
 11
78.06054534112263
 21
139.1050899738819
 31
0.0
  0
ARC
  5
1DB2
330
1F
100
AcDbEntity
  8
KONTUR
 48
10.0
100
AcDbCircle
 10
74.79727278222298
 20
143.9087928669996
 30
0.0
 40
1.5
100
AcDbArc
 50
328.8502981073516
 51
90.0
  0
ARC
  5
1DB3
330
1F
100
AcDbEntity
  8
KONTUR
 48
10.0
100
AcDbCircle
 10
73.20142805625255
 20
140.7275460000939
 30
0.0
 40
2.209129667283376
100
AcDbArc
 50
180.0
 51
0.0
  0
ARC
  5
1DB4
330
1F
100
AcDbEntity
  8
KONTUR
 48
10.0
100
AcDbCircle
 10
66.34229838896908
 20
140.7275460000939
 30
0.0
 40
4.65
100
AcDbArc
 50
0.0
 51
31.14970189265878
  0
LINE
  5
1DB5
330
1F
100
AcDbEntity
  8
KONTUR
 48
10.0
100
AcDbLine
 10
74.79727278222298
 20
145.4087928669996
 30
0.0
 11
71.6055833302812
 21
145.4087928669996
 31
0.0
  0
ARC
  5
1DB6
330
1F
100
AcDbEntity
  8
KONTUR
 48
10.0
100
AcDbCircle
 10
80.0605577235351
 20
140.7275460000939
 30
0.0
 40
4.65
100
AcDbArc
 50
148.8502981073412
 51
180.0
  0
ARC
  5
1DB7
330
1F
100
AcDbEntity
  8
KONTUR
 48
10.0
100
AcDbCircle
 10
71.6055833302812
 20
143.9087928669996
 30
0.0
 40
1.5
100
AcDbArc
 50
90.0
 51
211.1497018926483
  0
ARC
  5
1DB8
330
1F
100
AcDbEntity
  8
KONTUR
 48
10.0
100
AcDbCircle
 10
76.84231077138247
 20
148.9087928669991
 30
0.0
 40
1.5
100
AcDbArc
 50
270.0
 51
0.0
  0
LINE
  5
1DB9
330
1F
100
AcDbEntity
  8
KONTUR
 48
10.0
100
AcDbLine
 10
78.34231077138247
 20
148.9087928669991
 30
0.0
 11
78.34231077138247
 21
150.6050899738813
 31
0.0
  0
LINE
  5
1DBA
330
1F
100
AcDbEntity
  8
KONTUR
 48
10.0
100
AcDbLine
 10
69.56054534112263
 20
147.4087928669991
 30
0.0
 11
76.84231077138247
 21
147.4087928669991
 31
0.0
  0
LINE
  5
1DBB
330
1F
100
AcDbEntity
  8
KONTUR
 48
10.0
100
AcDbLine
 10
68.34231077138247
 20
140.801387080764
 30
0.0
 11
68.34231077138247
 21
139.1050899738819
 31
0.0
  0
ARC
  5
1DBC
330
1F
100
AcDbEntity
  8
KONTUR
 48
10.0
100
AcDbCircle
 10
89.56054534112263
 20
149.0425422716915
 30
0.0
 40
1.5
100
AcDbArc
 50
180.0
 51
219.9005516681941
  0
ARC
  5
1DBD
330
1F
100
AcDbEntity
  8
KONTUR
 48
10.0
100
AcDbCircle
 10
89.66863683637006
 20
148.9087928669991
 30
0.0
 40
1.5
100
AcDbArc
 50
217.9872613036091
 51
270.0
  0
ARC
  5
1DBE
330
1F
100
AcDbEntity
  8
KONTUR
 48
10.0
100
AcDbCircle
 10
85.60967661656468
 20
145.7390386282539
 30
0.0
 40
3.649999999999999
100
AcDbArc
 50
37.98726130360943
 51
39.90055166819321
  0
ARC
  5
1DBF
330
1F
100
AcDbEntity
  8
KONTUR
 48
10.0
100
AcDbCircle
 10
86.84231077138248
 20
140.801387080764
 30
0.0
 40
1.5
100
AcDbArc
 50
0.0
 51
90.0
  0
LINE
  5
1DC0
330
1F
100
AcDbEntity
  8
KONTUR
 48
10.0
100
AcDbLine
 10
88.06054534112263
 20
149.0425422716915
 30
0.0
 11
88.06054534112263
 21
150.6050899738813
 31
0.0
  0
LINE
  5
1DC1
330
1F
100
AcDbEntity
  8
KONTUR
 48
10.0
100
AcDbLine
 10
86.84231077138248
 20
142.301387080764
 30
0.0
 11
79.56054534112263
 21
142.301387080764
 31
0.0
  0
ARC
  5
1DC2
330
1F
100
AcDbEntity
  8
KONTUR
 48
10.0
100
AcDbCircle
 10
76.34229838896999
 20
148.9826339476694
 30
0.0
 40
4.65
100
AcDbArc
 50
328.8502981073412
 51
0.0
  0
ARC
  5
1DC3
330
1F
100
AcDbEntity
  8
KONTUR
 48
10.0
100
AcDbCircle
 10
81.60558333028211
 20
145.8013870807636
 30
0.0
 40
1.5
100
AcDbArc
 50
148.8502981073516
 51
270.0
  0
LINE
  5
1DC4
330
1F
100
AcDbEntity
  8
KONTUR
 48
10.0
100
AcDbLine
 10
81.60558333028211
 20
144.3013870807637
 30
0.0
 11
84.79727278222389
 21
144.3013870807637
 31
0.0
  0
ARC
  5
1DC5
330
1F
100
AcDbEntity
  8
KONTUR
 48
10.0
100
AcDbCircle
 10
84.79727278222389
 20
145.8013870807636
 30
0.0
 40
1.5
100
AcDbArc
 50
270.0
 51
31.14970189264837
  0
ARC
  5
1DC6
330
1F
100
AcDbEntity
  8
KONTUR
 48
10.0
100
AcDbCircle
 10
90.06055772353603
 20
148.9826339476694
 30
0.0
 40
4.65
100
AcDbArc
 50
180.0
 51
211.1497018926587
  0
LINE
  5
1DC7
330
1F
100
AcDbEntity
  8
KONTUR
 48
10.0
100
AcDbLine
 10
88.34231077138246
 20
139.1050899738819
 30
0.0
 11
89.16454066845927
 21
136.2457535945429
 31
0.0
  0
ARC
  5
1DC8
330
1F
100
AcDbEntity
  8
KONTUR
 48
10.0
100
AcDbCircle
 10
86.34229838896908
 20
140.7275460000939
 30
0.0
 40
4.65
100
AcDbArc
 50
0.0
 51
31.14970189265878
  0
LINE
  5
1DC9
330
1F
100
AcDbEntity
  8
KONTUR
 48
10.0
100
AcDbLine
 10
94.79727278222298
 20
145.4087928669996
 30
0.0
 11
91.6055833302812
 21
145.4087928669996
 31
0.0
  0
ARC
  5
1DCA
330
1F
100
AcDbEntity
  8
KONTUR
 48
10.0
100
AcDbCircle
 10
91.6055833302812
 20
143.9087928669996
 30
0.0
 40
1.5
100
AcDbArc
 50
90.0
 51
211.1497018926483
  0
LINE
  5
1DCB
330
1F
100
AcDbEntity
  8
KONTUR
 48
10.0
100
AcDbLine
 10
88.34231077138246
 20
140.801387080764
 30
0.0
 11
88.34231077138246
 21
139.1050899738819
 31
0.0
  0
LINE
  5
1DD4
330
1F
100
AcDbEntity
  8
KONKORT
 48
10.0
100
AcDbLine
 10
58.67988486094145
 20
153.4382275625135
 30
0.0
 11
67.80207987000085
 21
153.4382275625134
 31
0.0
  0
LINE
  5
1DD5
330
1F
100
AcDbEntity
  8
KONCENTER
 48
10.0
100
AcDbLine
 10
58.38186508060153
 20
151.4382275625133
 30
0.0
 11
68.0818501206968
 21
151.4382275625133
 31
0.0
  0
LINE
  5
1DD6
330
1F
100
AcDbEntity
  8
KONTUR
 48
10.0
100
AcDbLine
 10
61.13199520833655
 20
155.1050899738813
 30
0.0
 11
65.27086090416855
 21
155.1050899738815
 31
0.0
  0
ARC
  5
1DDF
330
1F
100
AcDbEntity
  8
KONTUR
 48
10.0
100
AcDbCircle
 10
61.13199520833655
 20
153.1050899738813
 30
0.0
 40
2.0
100
AcDbArc
 50
90.00000000000081
 51
169.6495666055198
  0
LINE
  5
1DFA
330
1F
100
AcDbEntity
  8
KONKORT
 48
10.0
100
AcDbLine
 10
78.67988486094145
 20
153.4382275625135
 30
0.0
 11
87.80207987000085
 21
153.4382275625134
 31
0.0
  0
LINE
  5
1DFB
330
1F
100
AcDbEntity
  8
KONCENTER
 48
10.0
100
AcDbLine
 10
78.38186508060153
 20
151.4382275625133
 30
0.0
 11
88.0818501206968
 21
151.4382275625133
 31
0.0
  0
ARC
  5
1DFC
330
1F
100
AcDbEntity
  8
KONTUR
 48
10.0
100
AcDbCircle
 10
81.13199520833655
 20
153.1050899738813
 30
0.0
 40
2.0
100
AcDbArc
 50
90.00000000000081
 51
169.6495666055198
  0
ARC
  5
1E04
330
1F
100
AcDbEntity
  8
KONTUR
 48
10.0
100
AcDbCircle
 10
65.27086090416855
 20
153.1050899738815
 30
0.0
 40
2.0
100
AcDbArc
 50
10.35043339447028
 51
90.00000000000081
  0
LINE
  5
1E07
330
1F
100
AcDbEntity
  8
KONTUR
 48
10.0
100
AcDbLine
 10
81.13199520833655
 20
155.1050899738813
 30
0.0
 11
85.27086090416856
 21
155.1050899738815
 31
0.0
  0
ARC
  5
1E08
330
1F
100
AcDbEntity
  8
KONTUR
 48
10.0
100
AcDbCircle
 10
85.27086090416856
 20
153.1050899738815
 30
0.0
 40
2.0
100
AcDbArc
 50
10.35043339447028
 51
90.00000000000081
  0
INSERT
  5
1FBF
330
1F
100
AcDbEntity
  8
KONTUR
100
AcDbBlockReference
 66
     1
  2
SCANHOV
 10
289.4708352026936
 20
40.66765430210216
 30
0.0
  0
ATTRIB
  5
1FC0
330
1FBF
100
AcDbEntity
  8
TEKST
100
AcDbText
 10
150.4337751160019
 20
41.59923256485694
 30
0.0
 40
2.5
  1

100
AcDbAttribute
  2
TEGN13
 70
     0
  0
ATTRIB
  5
1FC1
330
1FBF
100
AcDbEntity
  8
TEKST
100
AcDbText
 10
150.3670751160016
 20
61.71722704931744
 30
0.0
 40
2.5
  1

100
AcDbAttribute
  2
TGN1
 70
     0
  0
ATTRIB
  5
1FC2
330
1FBF
100
AcDbEntity
  8
TEKST
100
AcDbText
 10
150.4337751160019
 20
51.58153256485707
 30
0.0
 40
2.5
  1
Minipitch - 12.406
100
AcDbAttribute
  2
TGN12
 70
     0
  0
ATTRIB
  5
1FC3
330
1FBF
100
AcDbEntity
  8
TEKST
100
AcDbText
 10
150.3670751160016
 20
81.42867268411146
 30
0.0
 40
2.5
  1

100
AcDbAttribute
  2
TGN2
 70
     0
  0
ATTRIB
  5
1FC4
330
1FBF
100
AcDbEntity
  8
TEKST
100
AcDbText
 10
150.3097838562589
 20
71.53442332800136
 30
0.0
 40
2.5
  1

100
AcDbAttribute
  2
TGN10
 70
     0
  0
ATTRIB
  5
1FC5
330
1FBF
100
AcDbEntity
  8
TEKST
100
AcDbText
 10
190.4197925870612
 20
71.36803316808062
 30
0.0
 40
2.5
  1

100
AcDbAttribute
  2
TGN11
 70
     0
  0
ATTRIB
  5
1FC6
330
1FBF
100
AcDbEntity
  8
TEKST
100
AcDbText
 10
230.4844751160016
 20
41.6149444914904
 30
0.0
 40
2.5
  1
750.10.0590a
100
AcDbAttribute
  2
TGN9
 70
     0
  0
ATTRIB
  5
1FC7
330
1FBF
100
AcDbEntity
  8
TEKST
100
AcDbText
 10
230.673585973308
 20
61.56622263649433
 30
0.0
 40
2.5
  1
1:1
100
AcDbAttribute
  2
TEGN6
 70
     0
  0
ATTRIB
  5
1FC8
330
1FBF
100
AcDbEntity
  8
TEKST
100
AcDbText
 10
230.5101707693247
 20
51.89671629886936
 30
0.0
 40
2.5
  1

100
AcDbAttribute
  2
TGN8
 70
     0
  0
ATTRIB
  5
1FC9
330
1FBF
100
AcDbEntity
  8
TEKST
100
AcDbText
 10
260.2632850128484
 20
81.46724389521773
 30
0.0
 40
2.5
  1

100
AcDbAttribute
  2
TGN3
 70
     0
  0
ATTRIB
  5
1FCA
330
1FBF
100
AcDbEntity
  8
TEKST
100
AcDbText
 10
261.2469856834241
 20
71.68531570259688
 30
0.0
 40
2.5
  1

100
AcDbAttribute
  2
TGN4
 70
     0
  0
ATTRIB
  5
1FCB
330
1FBF
100
AcDbEntity
  8
TEKST
100
AcDbText
 10
230.4844751160016
 20
71.71044449149054
 30
0.0
 40
2.5
  1
KS.
100
AcDbAttribute
  2
TEGN7
 70
     0
  0
ATTRIB
  5
1FCC
330
1FBF
100
AcDbEntity
  8
TEKST
100
AcDbText
 10
230.6669751160015
 20
81.7422444914905
 30
0.0
 40
2.5
  1
010201
100
AcDbAttribute
  2
TEGN5
 70
     0
  0
SEQEND
  5
1FCD
330
1FBF
100
AcDbEntity
  8
KONTUR
  0
LINE
  5
201A
330
1F
100
AcDbEntity
  8
KONKORT
 48
10.0
100
AcDbLine
 10
218.6798848609414
 20
153.4382275625135
 30
0.0
 11
227.8020798700008
 21
153.4382275625134
 31
0.0
  0
LINE
  5
201B
330
1F
100
AcDbEntity
  8
KONCENTER
 48
10.0
100
AcDbLine
 10
218.3818650806015
 20
151.4382275625133
 30
0.0
 11
228.0818501206967
 21
151.4382275625133
 31
0.0
  0
LINE
  5
201C
330
1F
100
AcDbEntity
  8
KONKORT
 48
10.0
100
AcDbLine
 10
218.3818650806015
 20
149.4382275625135
 30
0.0
 11
228.0818501206967
 21
149.4382275625134
 31
0.0
  0
LINE
  5
201D
330
1F
100
AcDbEntity
  8
KONTUR
 48
10.0
100
AcDbLine
 10
221.1319952083365
 20
155.1050899738813
 30
0.0
 11
225.2708609041685
 21
155.1050899738815
 31
0.0
  0
LINE
  5
201E
330
1F
100
AcDbEntity
  8
KONTUR
 48
10.0
100
AcDbLine
 10
226.8423107713824
 20
142.301387080764
 30
0.0
 11
219.5605453411226
 21
142.301387080764
 31
0.0
  0
LINE
  5
201F
330
1F
100
AcDbEntity
  8
KONTUR
 48
10.0
100
AcDbLine
 10
221.6055833302821
 20
144.3013870807637
 30
0.0
 11
224.7972727822239
 21
144.3013870807637
 31
0.0
  0
ARC
  5
2020
330
1F
100
AcDbEntity
  8
KONTUR
 48
10.0
100
AcDbCircle
 10
223.2014280562525
 20
148.9826339476693
 30
0.0
 40
2.209129667283376
100
AcDbArc
 50
0.0
 51
180.0
  0
LINE
  5
2041
330
1F
100
AcDbEntity
  8
KONCENTER
 48
10.0
100
AcDbLine
 10
158.3818650806015
 20
151.4382275625133
 30
0.0
 11
168.0818501206968
 21
151.4382275625133
 31
0.0
  0
LINE
  5
2042
330
1F
100
AcDbEntity
  8
KONKORT
 48
10.0
100
AcDbLine
 10
158.3818650806015
 20
149.4382275625135
 30
0.0
 11
168.0818501206968
 21
149.4382275625134
 31
0.0
  0
LINE
  5
2043
330
1F
100
AcDbEntity
  8
KONTUR
 48
10.0
100
AcDbLine
 10
158.3423107713824
 20
150.6050899738813
 30
0.0
 11
159.1645406684592
 21
153.4644263532202
 31
0.0
  0
ARC
  5
2044
330
1F
100
AcDbEntity
  8
KONTUR
 48
10.0
100
AcDbCircle
 10
159.5605453411226
 20
140.801387080764
 30
0.0
 40
1.5
100
AcDbArc
 50
90.0
 51
180.0
  0
ARC
  5
2045
330
1F
100
AcDbEntity
  8
KONTUR
 48
10.0
100
AcDbCircle
 10
156.8423107713824
 20
148.9087928669991
 30
0.0
 40
1.5
100
AcDbArc
 50
270.0
 51
0.0
  0
LINE
  5
2046
330
1F
100
AcDbEntity
  8
KONTUR
 48
10.0
100
AcDbLine
 10
108.0605453411226
 20
150.6050899738788
 30
0.0
 11
107.2383154440458
 21
153.46442635322
 31
0.0
  0
LINE
  5
2047
330
1F
100
AcDbEntity
  8
KONTUR
 48
10.0
100
AcDbLine
 10
98.34231077138248
 20
150.6050899738813
 30
0.0
 11
99.16454066845927
 21
153.4644263532202
 31
0.0
  0
ARC
  5
2048
330
1F
100
AcDbEntity
  8
KONTUR
 48
10.0
100
AcDbCircle
 10
103.2014280562525
 20
148.9826339476693
 30
0.0
 40
2.209129667283376
100
AcDbArc
 50
0.0
 51
180.0
  0
LINE
  5
2049
330
1F
100
AcDbEntity
  8
KONTUR
 48
10.0
100
AcDbLine
 10
128.0605453411226
 20
150.6050899738788
 30
0.0
 11
127.2383154440458
 21
153.46442635322
 31
0.0
  0
LINE
  5
204A
330
1F
100
AcDbEntity
  8
KONTUR
 48
10.0
100
AcDbLine
 10
118.3423107713824
 20
150.6050899738813
 30
0.0
 11
119.1645406684592
 21
153.4644263532202
 31
0.0
  0
ARC
  5
204B
330
1F
100
AcDbEntity
  8
KONTUR
 48
10.0
100
AcDbCircle
 10
123.2014280562525
 20
148.9826339476693
 30
0.0
 40
2.209129667283376
100
AcDbArc
 50
0.0
 51
180.0
  0
LINE
  5
204C
330
1F
100
AcDbEntity
  8
KONTUR
 48
10.0
100
AcDbLine
 10
148.0605453411226
 20
150.6050899738788
 30
0.0
 11
147.2383154440458
 21
153.46442635322
 31
0.0
  0
LINE
  5
204D
330
1F
100
AcDbEntity
  8
KONTUR
 48
10.0
100
AcDbLine
 10
138.3423107713824
 20
150.6050899738813
 30
0.0
 11
139.1645406684592
 21
153.4644263532202
 31
0.0
  0
ARC
  5
204E
330
1F
100
AcDbEntity
  8
KONTUR
 48
10.0
100
AcDbCircle
 10
143.2014280562525
 20
148.9826339476693
 30
0.0
 40
2.209129667283376
100
AcDbArc
 50
0.0
 51
180.0
  0
LINE
  5
204F
330
1F
100
AcDbEntity
  8
KONKORT
 48
10.0
100
AcDbLine
 10
118.3818650806015
 20
149.4382275625135
 30
0.0
 11
128.0818501206967
 21
149.4382275625134
 31
0.0
  0
ARC
  5
2050
330
1F
100
AcDbEntity
  8
KONTUR
 48
10.0
100
AcDbCircle
 10
126.8423107713824
 20
140.801387080764
 30
0.0
 40
1.5
100
AcDbArc
 50
0.0
 51
90.0
  0
ARC
  5
2051
330
1F
100
AcDbEntity
  8
KONTUR
 48
10.0
100
AcDbCircle
 10
95.27086090416856
 20
136.6050899738818
 30
0.0
 40
2.0
100
AcDbArc
 50
270.0000000000008
 51
349.6495666055198
  0
ARC
  5
2052
330
1F
100
AcDbEntity
  8
KONTUR
 48
10.0
100
AcDbCircle
 10
115.2708609041685
 20
136.6050899738818
 30
0.0
 40
2.0
100
AcDbArc
 50
270.0000000000008
 51
349.6495666055198
  0
ARC
  5
2053
330
1F
100
AcDbEntity
  8
KONTUR
 48
10.0
100
AcDbCircle
 10
111.1319952083365
 20
136.6050899738818
 30
0.0
 40
2.0
100
AcDbArc
 50
190.3504333944702
 51
270.0000000000008
  0
LINE
  5
2054
330
1F
100
AcDbEntity
  8
KONTUR
 48
10.0
100
AcDbLine
 10
115.2708609041685
 20
134.6050899738818
 30
0.0
 11
111.1319952083365
 21
134.6050899738818
 31
0.0
  0
LINE
  5
2055
330
1F
100
AcDbEntity
  8
KONCENTER
 48
10.0
100
AcDbLine
 10
108.3818774630108
 20
138.9382275625133
 30
0.0
 11
118.0818625031097
 21
138.9382275625133
 31
0.0
  0
LINE
  5
2056
330
1F
100
AcDbEntity
  8
KONKORT
 48
10.0
100
AcDbLine
 10
108.3818774630108
 20
140.9382275625134
 30
0.0
 11
118.0818625031097
 21
140.9382275625134
 31
0.0
  0
LINE
  5
2057
330
1F
100
AcDbEntity
  8
KONKORT
 48
10.0
100
AcDbLine
 10
108.6798848609414
 20
136.9382275625134
 30
0.0
 11
117.8020798700008
 21
136.9382275625134
 31
0.0
  0
ARC
  5
2058
330
1F
100
AcDbEntity
  8
KONTUR
 48
10.0
100
AcDbCircle
 10
113.2014280562525
 20
140.7275460000939
 30
0.0
 40
2.209129667283376
100
AcDbArc
 50
180.0
 51
0.0
  0
ARC
  5
2059
330
1F
100
AcDbEntity
  8
KONTUR
 48
10.0
100
AcDbCircle
 10
106.342298388969
 20
140.7275460000939
 30
0.0
 40
4.65
100
AcDbArc
 50
0.0
 51
31.14970189265878
  0
ARC
  5
205A
330
1F
100
AcDbEntity
  8
KONTUR
 48
10.0
100
AcDbCircle
 10
111.6055833302812
 20
143.9087928669996
 30
0.0
 40
1.5
100
AcDbArc
 50
90.0
 51
211.1497018926483
  0
LINE
  5
205B
330
1F
100
AcDbEntity
  8
KONTUR
 48
10.0
100
AcDbLine
 10
109.5605453411226
 20
147.4087928669991
 30
0.0
 11
116.8423107713824
 21
147.4087928669991
 31
0.0
  0
LINE
  5
205C
330
1F
100
AcDbEntity
  8
KONKORT
 48
10.0
100
AcDbLine
 10
98.38186508060154
 20
149.4382275625135
 30
0.0
 11
108.0818501206967
 21
149.4382275625134
 31
0.0
  0
ARC
  5
205D
330
1F
100
AcDbEntity
  8
KONTUR
 48
10.0
100
AcDbCircle
 10
109.5605453411226
 20
149.0425422716915
 30
0.0
 40
1.5
100
AcDbArc
 50
180.0
 51
219.9005516681941
  0
ARC
  5
205E
330
1F
100
AcDbEntity
  8
KONTUR
 48
10.0
100
AcDbCircle
 10
109.66863683637
 20
148.9087928669991
 30
0.0
 40
1.5
100
AcDbArc
 50
217.9872613036091
 51
270.0
  0
ARC
  5
205F
330
1F
100
AcDbEntity
  8
KONTUR
 48
10.0
100
AcDbCircle
 10
105.6096766165646
 20
145.7390386282539
 30
0.0
 40
3.649999999999999
100
AcDbArc
 50
37.98726130360943
 51
39.90055166819321
  0
ARC
  5
2060
330
1F
100
AcDbEntity
  8
KONTUR
 48
10.0
100
AcDbCircle
 10
106.8423107713824
 20
140.801387080764
 30
0.0
 40
1.5
100
AcDbArc
 50
0.0
 51
90.0
  0
LINE
  5
2061
330
1F
100
AcDbEntity
  8
KONTUR
 48
10.0
100
AcDbLine
 10
108.0605453411226
 20
149.0425422716915
 30
0.0
 11
108.0605453411226
 21
150.6050899738813
 31
0.0
  0
LINE
  5
2062
330
1F
100
AcDbEntity
  8
KONTUR
 48
10.0
100
AcDbLine
 10
98.06054534112263
 20
139.1050899738819
 30
0.0
 11
97.23831544404584
 21
136.2457535945429
 31
0.0
  0
ARC
  5
2063
330
1F
100
AcDbEntity
  8
KONTUR
 48
10.0
100
AcDbCircle
 10
99.56054534112263
 20
140.801387080764
 30
0.0
 40
1.5
100
AcDbArc
 50
90.0
 51
180.0
  0
LINE
  5
2064
330
1F
100
AcDbEntity
  8
KONTUR
 48
10.0
100
AcDbLine
 10
98.06054534112263
 20
140.801387080764
 30
0.0
 11
98.06054534112263
 21
139.1050899738819
 31
0.0
  0
LINE
  5
2065
330
1F
100
AcDbEntity
  8
KONTUR
 48
10.0
100
AcDbLine
 10
106.8423107713824
 20
142.301387080764
 30
0.0
 11
99.56054534112263
 21
142.301387080764
 31
0.0
  0
ARC
  5
2066
330
1F
100
AcDbEntity
  8
KONTUR
 48
10.0
100
AcDbCircle
 10
96.34229838896999
 20
148.9826339476694
 30
0.0
 40
4.65
100
AcDbArc
 50
328.8502981073412
 51
0.0
  0
ARC
  5
2067
330
1F
100
AcDbEntity
  8
KONTUR
 48
10.0
100
AcDbCircle
 10
101.6055833302821
 20
145.8013870807636
 30
0.0
 40
1.5
100
AcDbArc
 50
148.8502981073516
 51
270.0
  0
LINE
  5
2068
330
1F
100
AcDbEntity
  8
KONTUR
 48
10.0
100
AcDbLine
 10
101.6055833302821
 20
144.3013870807637
 30
0.0
 11
104.7972727822239
 21
144.3013870807637
 31
0.0
  0
ARC
  5
2069
330
1F
100
AcDbEntity
  8
KONTUR
 48
10.0
100
AcDbCircle
 10
104.7972727822239
 20
145.8013870807636
 30
0.0
 40
1.5
100
AcDbArc
 50
270.0
 51
31.14970189264837
  0
ARC
  5
206A
330
1F
100
AcDbEntity
  8
KONTUR
 48
10.0
100
AcDbCircle
 10
110.060557723536
 20
148.9826339476694
 30
0.0
 40
4.65
100
AcDbArc
 50
180.0
 51
211.1497018926587
  0
ARC
  5
206B
330
1F
100
AcDbEntity
  8
KONTUR
 48
10.0
100
AcDbCircle
 10
100.0605577235351
 20
140.7275460000939
 30
0.0
 40
4.65
100
AcDbArc
 50
148.8502981073412
 51
180.0
  0
ARC
  5
206C
330
1F
100
AcDbEntity
  8
KONTUR
 48
10.0
100
AcDbCircle
 10
96.84231077138248
 20
148.9087928669991
 30
0.0
 40
1.5
100
AcDbArc
 50
270.0
 51
0.0
  0
LINE
  5
206D
330
1F
100
AcDbEntity
  8
KONTUR
 48
10.0
100
AcDbLine
 10
98.34231077138248
 20
148.9087928669991
 30
0.0
 11
98.34231077138248
 21
150.6050899738813
 31
0.0
  0
LINE
  5
206E
330
1F
100
AcDbEntity
  8
KONTUR
 48
10.0
100
AcDbLine
 10
108.3423107713824
 20
139.1050899738819
 30
0.0
 11
109.1645406684592
 21
136.2457535945429
 31
0.0
  0
LINE
  5
206F
330
1F
100
AcDbEntity
  8
KONTUR
 48
10.0
100
AcDbLine
 10
108.3423107713824
 20
140.801387080764
 30
0.0
 11
108.3423107713824
 21
139.1050899738819
 31
0.0
  0
LINE
  5
2070
330
1F
100
AcDbEntity
  8
KONTUR
 48
10.0
100
AcDbLine
 10
118.0605453411226
 20
139.1050899738819
 30
0.0
 11
117.2383154440458
 21
136.2457535945429
 31
0.0
  0
ARC
  5
2071
330
1F
100
AcDbEntity
  8
KONTUR
 48
10.0
100
AcDbCircle
 10
119.5605453411226
 20
140.801387080764
 30
0.0
 40
1.5
100
AcDbArc
 50
90.0
 51
180.0
  0
LINE
  5
2072
330
1F
100
AcDbEntity
  8
KONTUR
 48
10.0
100
AcDbLine
 10
118.0605453411226
 20
140.801387080764
 30
0.0
 11
118.0605453411226
 21
139.1050899738819
 31
0.0
  0
LINE
  5
2073
330
1F
100
AcDbEntity
  8
KONTUR
 48
10.0
100
AcDbLine
 10
126.8423107713824
 20
142.301387080764
 30
0.0
 11
119.5605453411226
 21
142.301387080764
 31
0.0
  0
ARC
  5
2074
330
1F
100
AcDbEntity
  8
KONTUR
 48
10.0
100
AcDbCircle
 10
116.3422983889699
 20
148.9826339476694
 30
0.0
 40
4.65
100
AcDbArc
 50
328.8502981073412
 51
0.0
  0
ARC
  5
2075
330
1F
100
AcDbEntity
  8
KONTUR
 48
10.0
100
AcDbCircle
 10
121.6055833302821
 20
145.8013870807636
 30
0.0
 40
1.5
100
AcDbArc
 50
148.8502981073516
 51
270.0
  0
LINE
  5
2076
330
1F
100
AcDbEntity
  8
KONTUR
 48
10.0
100
AcDbLine
 10
121.6055833302821
 20
144.3013870807637
 30
0.0
 11
124.7972727822239
 21
144.3013870807637
 31
0.0
  0
ARC
  5
2077
330
1F
100
AcDbEntity
  8
KONTUR
 48
10.0
100
AcDbCircle
 10
124.7972727822239
 20
145.8013870807636
 30
0.0
 40
1.5
100
AcDbArc
 50
270.0
 51
31.14970189264837
  0
ARC
  5
2078
330
1F
100
AcDbEntity
  8
KONTUR
 48
10.0
100
AcDbCircle
 10
130.060557723536
 20
148.9826339476694
 30
0.0
 40
4.65
100
AcDbArc
 50
180.0
 51
211.1497018926587
  0
ARC
  5
2079
330
1F
100
AcDbEntity
  8
KONTUR
 48
10.0
100
AcDbCircle
 10
114.797272782223
 20
143.9087928669996
 30
0.0
 40
1.5
100
AcDbArc
 50
328.8502981073516
 51
90.0
  0
LINE
  5
207A
330
1F
100
AcDbEntity
  8
KONTUR
 48
10.0
100
AcDbLine
 10
114.797272782223
 20
145.4087928669996
 30
0.0
 11
111.6055833302812
 21
145.4087928669996
 31
0.0
  0
ARC
  5
207B
330
1F
100
AcDbEntity
  8
KONTUR
 48
10.0
100
AcDbCircle
 10
120.0605577235351
 20
140.7275460000939
 30
0.0
 40
4.65
100
AcDbArc
 50
148.8502981073412
 51
180.0
  0
ARC
  5
207C
330
1F
100
AcDbEntity
  8
KONTUR
 48
10.0
100
AcDbCircle
 10
116.8423107713824
 20
148.9087928669991
 30
0.0
 40
1.5
100
AcDbArc
 50
270.0
 51
0.0
  0
LINE
  5
207D
330
1F
100
AcDbEntity
  8
KONTUR
 48
10.0
100
AcDbLine
 10
118.3423107713824
 20
148.9087928669991
 30
0.0
 11
118.3423107713824
 21
150.6050899738813
 31
0.0
  0
ARC
  5
207E
330
1F
100
AcDbEntity
  8
KONTUR
 48
10.0
100
AcDbCircle
 10
135.2708609041685
 20
136.6050899738818
 30
0.0
 40
2.0
100
AcDbArc
 50
270.0000000000008
 51
349.6495666055198
  0
ARC
  5
207F
330
1F
100
AcDbEntity
  8
KONTUR
 48
10.0
100
AcDbCircle
 10
131.1319952083365
 20
136.6050899738818
 30
0.0
 40
2.0
100
AcDbArc
 50
190.3504333944702
 51
270.0000000000008
  0
ARC
  5
2080
330
1F
100
AcDbEntity
  8
KONTUR
 48
10.0
100
AcDbCircle
 10
155.2708609041685
 20
136.6050899738818
 30
0.0
 40
2.0
100
AcDbArc
 50
270.0000000000008
 51
349.6495666055198
  0
ARC
  5
2081
330
1F
100
AcDbEntity
  8
KONTUR
 48
10.0
100
AcDbCircle
 10
151.1319952083365
 20
136.6050899738818
 30
0.0
 40
2.0
100
AcDbArc
 50
190.3504333944702
 51
270.0000000000008
  0
LINE
  5
2082
330
1F
100
AcDbEntity
  8
KONTUR
 48
10.0
100
AcDbLine
 10
135.2708609041685
 20
134.6050899738818
 30
0.0
 11
131.1319952083365
 21
134.6050899738818
 31
0.0
  0
LINE
  5
2083
330
1F
100
AcDbEntity
  8
KONTUR
 48
10.0
100
AcDbLine
 10
155.2708609041685
 20
134.6050899738818
 30
0.0
 11
151.1319952083365
 21
134.6050899738818
 31
0.0
  0
LINE
  5
2084
330
1F
100
AcDbEntity
  8
KONKORT
 48
10.0
100
AcDbLine
 10
138.3818650806015
 20
149.4382275625135
 30
0.0
 11
148.0818501206968
 21
149.4382275625134
 31
0.0
  0
LINE
  5
2085
330
1F
100
AcDbEntity
  8
KONTUR
 48
10.0
100
AcDbLine
 10
146.8423107713824
 20
142.301387080764
 30
0.0
 11
139.5605453411226
 21
142.301387080764
 31
0.0
  0
LINE
  5
2086
330
1F
100
AcDbEntity
  8
KONTUR
 48
10.0
100
AcDbLine
 10
141.6055833302821
 20
144.3013870807637
 30
0.0
 11
144.7972727822238
 21
144.3013870807637
 31
0.0
  0
LINE
  5
2087
330
1F
100
AcDbEntity
  8
KONCENTER
 48
10.0
100
AcDbLine
 10
128.3818774630108
 20
138.9382275625133
 30
0.0
 11
138.0818625031097
 21
138.9382275625133
 31
0.0
  0
LINE
  5
2088
330
1F
100
AcDbEntity
  8
KONKORT
 48
10.0
100
AcDbLine
 10
128.3818774630108
 20
140.9382275625134
 30
0.0
 11
138.0818625031097
 21
140.9382275625134
 31
0.0
  0
LINE
  5
2089
330
1F
100
AcDbEntity
  8
KONKORT
 48
10.0
100
AcDbLine
 10
128.6798848609414
 20
136.9382275625134
 30
0.0
 11
137.8020798700008
 21
136.9382275625134
 31
0.0
  0
ARC
  5
208A
330
1F
100
AcDbEntity
  8
KONTUR
 48
10.0
100
AcDbCircle
 10
129.5605453411226
 20
149.0425422716915
 30
0.0
 40
1.5
100
AcDbArc
 50
180.0
 51
219.9005516681941
  0
ARC
  5
208B
330
1F
100
AcDbEntity
  8
KONTUR
 48
10.0
100
AcDbCircle
 10
129.66863683637
 20
148.9087928669991
 30
0.0
 40
1.5
100
AcDbArc
 50
217.9872613036091
 51
270.0
  0
ARC
  5
208C
330
1F
100
AcDbEntity
  8
KONTUR
 48
10.0
100
AcDbCircle
 10
125.6096766165646
 20
145.7390386282539
 30
0.0
 40
3.649999999999999
100
AcDbArc
 50
37.98726130360943
 51
39.90055166819321
  0
LINE
  5
208D
330
1F
100
AcDbEntity
  8
KONTUR
 48
10.0
100
AcDbLine
 10
128.0605453411226
 20
149.0425422716915
 30
0.0
 11
128.0605453411226
 21
150.6050899738813
 31
0.0
  0
LINE
  5
208E
330
1F
100
AcDbEntity
  8
KONTUR
 48
10.0
100
AcDbLine
 10
138.0605453411226
 20
139.1050899738819
 30
0.0
 11
137.2383154440458
 21
136.2457535945429
 31
0.0
  0
LINE
  5
208F
330
1F
100
AcDbEntity
  8
KONTUR
 48
10.0
100
AcDbLine
 10
128.3423107713824
 20
139.1050899738819
 30
0.0
 11
129.1645406684592
 21
136.2457535945429
 31
0.0
  0
ARC
  5
2090
330
1F
100
AcDbEntity
  8
KONTUR
 48
10.0
100
AcDbCircle
 10
139.5605453411226
 20
140.801387080764
 30
0.0
 40
1.5
100
AcDbArc
 50
90.0
 51
180.0
  0
LINE
  5
2091
330
1F
100
AcDbEntity
  8
KONTUR
 48
10.0
100
AcDbLine
 10
138.0605453411226
 20
140.801387080764
 30
0.0
 11
138.0605453411226
 21
139.1050899738819
 31
0.0
  0
ARC
  5
2092
330
1F
100
AcDbEntity
  8
KONTUR
 48
10.0
100
AcDbCircle
 10
136.34229838897
 20
148.9826339476694
 30
0.0
 40
4.65
100
AcDbArc
 50
328.8502981073412
 51
0.0
  0
ARC
  5
2093
330
1F
100
AcDbEntity
  8
KONTUR
 48
10.0
100
AcDbCircle
 10
141.6055833302821
 20
145.8013870807636
 30
0.0
 40
1.5
100
AcDbArc
 50
148.8502981073516
 51
270.0
  0
ARC
  5
2094
330
1F
100
AcDbEntity
  8
KONTUR
 48
10.0
100
AcDbCircle
 10
134.7972727822229
 20
143.9087928669996
 30
0.0
 40
1.5
100
AcDbArc
 50
328.8502981073516
 51
90.0
  0
ARC
  5
2095
330
1F
100
AcDbEntity
  8
KONTUR
 48
10.0
100
AcDbCircle
 10
133.2014280562525
 20
140.7275460000939
 30
0.0
 40
2.209129667283376
100
AcDbArc
 50
180.0
 51
0.0
  0
ARC
  5
2096
330
1F
100
AcDbEntity
  8
KONTUR
 48
10.0
100
AcDbCircle
 10
126.342298388969
 20
140.7275460000939
 30
0.0
 40
4.65
100
AcDbArc
 50
0.0
 51
31.14970189265878
  0
LINE
  5
2097
330
1F
100
AcDbEntity
  8
KONTUR
 48
10.0
100
AcDbLine
 10
134.7972727822229
 20
145.4087928669996
 30
0.0
 11
131.6055833302812
 21
145.4087928669996
 31
0.0
  0
ARC
  5
2098
330
1F
100
AcDbEntity
  8
KONTUR
 48
10.0
100
AcDbCircle
 10
140.0605577235351
 20
140.7275460000939
 30
0.0
 40
4.65
100
AcDbArc
 50
148.8502981073412
 51
180.0
  0
ARC
  5
2099
330
1F
100
AcDbEntity
  8
KONTUR
 48
10.0
100
AcDbCircle
 10
131.6055833302812
 20
143.9087928669996
 30
0.0
 40
1.5
100
AcDbArc
 50
90.0
 51
211.1497018926483
  0
ARC
  5
209A
330
1F
100
AcDbEntity
  8
KONTUR
 48
10.0
100
AcDbCircle
 10
136.8423107713824
 20
148.9087928669991
 30
0.0
 40
1.5
100
AcDbArc
 50
270.0
 51
0.0
  0
LINE
  5
209B
330
1F
100
AcDbEntity
  8
KONTUR
 48
10.0
100
AcDbLine
 10
138.3423107713824
 20
148.9087928669991
 30
0.0
 11
138.3423107713824
 21
150.6050899738813
 31
0.0
  0
LINE
  5
209C
330
1F
100
AcDbEntity
  8
KONTUR
 48
10.0
100
AcDbLine
 10
129.5605453411226
 20
147.4087928669991
 30
0.0
 11
136.8423107713824
 21
147.4087928669991
 31
0.0
  0
LINE
  5
209D
330
1F
100
AcDbEntity
  8
KONTUR
 48
10.0
100
AcDbLine
 10
128.3423107713824
 20
140.801387080764
 30
0.0
 11
128.3423107713824
 21
139.1050899738819
 31
0.0
  0
LINE
  5
209E
330
1F
100
AcDbEntity
  8
KONCENTER
 48
10.0
100
AcDbLine
 10
148.3818774630108
 20
138.9382275625133
 30
0.0
 11
158.0818625031097
 21
138.9382275625133
 31
0.0
  0
LINE
  5
209F
330
1F
100
AcDbEntity
  8
KONKORT
 48
10.0
100
AcDbLine
 10
148.3818774630108
 20
140.9382275625134
 30
0.0
 11
158.0818625031097
 21
140.9382275625134
 31
0.0
  0
LINE
  5
20A0
330
1F
100
AcDbEntity
  8
KONKORT
 48
10.0
100
AcDbLine
 10
148.6798848609414
 20
136.9382275625134
 30
0.0
 11
157.8020798700008
 21
136.9382275625134
 31
0.0
  0
ARC
  5
20A1
330
1F
100
AcDbEntity
  8
KONTUR
 48
10.0
100
AcDbCircle
 10
149.5605453411226
 20
149.0425422716915
 30
0.0
 40
1.5
100
AcDbArc
 50
180.0
 51
219.9005516681941
  0
ARC
  5
20A2
330
1F
100
AcDbEntity
  8
KONTUR
 48
10.0
100
AcDbCircle
 10
149.66863683637
 20
148.9087928669991
 30
0.0
 40
1.5
100
AcDbArc
 50
217.9872613036091
 51
270.0
  0
ARC
  5
20A3
330
1F
100
AcDbEntity
  8
KONTUR
 48
10.0
100
AcDbCircle
 10
145.6096766165646
 20
145.7390386282539
 30
0.0
 40
3.649999999999999
100
AcDbArc
 50
37.98726130360943
 51
39.90055166819321
  0
ARC
  5
20A4
330
1F
100
AcDbEntity
  8
KONTUR
 48
10.0
100
AcDbCircle
 10
146.8423107713824
 20
140.801387080764
 30
0.0
 40
1.5
100
AcDbArc
 50
0.0
 51
90.0
  0
LINE
  5
20A5
330
1F
100
AcDbEntity
  8
KONTUR
 48
10.0
100
AcDbLine
 10
148.0605453411226
 20
149.0425422716915
 30
0.0
 11
148.0605453411226
 21
150.6050899738813
 31
0.0
  0
ARC
  5
20A6
330
1F
100
AcDbEntity
  8
KONTUR
 48
10.0
100
AcDbCircle
 10
144.7972727822238
 20
145.8013870807636
 30
0.0
 40
1.5
100
AcDbArc
 50
270.0
 51
31.14970189264837
  0
ARC
  5
20A7
330
1F
100
AcDbEntity
  8
KONTUR
 48
10.0
100
AcDbCircle
 10
150.060557723536
 20
148.9826339476694
 30
0.0
 40
4.65
100
AcDbArc
 50
180.0
 51
211.1497018926587
  0
LINE
  5
20A8
330
1F
100
AcDbEntity
  8
KONTUR
 48
10.0
100
AcDbLine
 10
158.0605453411226
 20
139.1050899738819
 30
0.0
 11
157.2383154440458
 21
136.2457535945429
 31
0.0
  0
LINE
  5
20A9
330
1F
100
AcDbEntity
  8
KONTUR
 48
10.0
100
AcDbLine
 10
148.3423107713824
 20
139.1050899738819
 30
0.0
 11
149.1645406684592
 21
136.2457535945429
 31
0.0
  0
LINE
  5
20AA
330
1F
100
AcDbEntity
  8
KONTUR
 48
10.0
100
AcDbLine
 10
158.0605453411226
 20
140.801387080764
 30
0.0
 11
158.0605453411226
 21
139.1050899738819
 31
0.0
  0
ARC
  5
20AB
330
1F
100
AcDbEntity
  8
KONTUR
 48
10.0
100
AcDbCircle
 10
154.7972727822229
 20
143.9087928669996
 30
0.0
 40
1.5
100
AcDbArc
 50
328.8502981073516
 51
90.0
  0
ARC
  5
20AC
330
1F
100
AcDbEntity
  8
KONTUR
 48
10.0
100
AcDbCircle
 10
153.2014280562525
 20
140.7275460000939
 30
0.0
 40
2.209129667283376
100
AcDbArc
 50
180.0
 51
0.0
  0
ARC
  5
20AD
330
1F
100
AcDbEntity
  8
KONTUR
 48
10.0
100
AcDbCircle
 10
146.342298388969
 20
140.7275460000939
 30
0.0
 40
4.65
100
AcDbArc
 50
0.0
 51
31.14970189265878
  0
LINE
  5
20AE
330
1F
100
AcDbEntity
  8
KONTUR
 48
10.0
100
AcDbLine
 10
154.7972727822229
 20
145.4087928669996
 30
0.0
 11
151.6055833302812
 21
145.4087928669996
 31
0.0
  0
ARC
  5
20AF
330
1F
100
AcDbEntity
  8
KONTUR
 48
10.0
100
AcDbCircle
 10
160.0605577235351
 20
140.7275460000939
 30
0.0
 40
4.65
100
AcDbArc
 50
148.8502981073412
 51
180.0
  0
ARC
  5
20B0
330
1F
100
AcDbEntity
  8
KONTUR
 48
10.0
100
AcDbCircle
 10
151.6055833302812
 20
143.9087928669996
 30
0.0
 40
1.5
100
AcDbArc
 50
90.0
 51
211.1497018926483
  0
LINE
  5
20B1
330
1F
100
AcDbEntity
  8
KONTUR
 48
10.0
100
AcDbLine
 10
158.3423107713824
 20
148.9087928669991
 30
0.0
 11
158.3423107713824
 21
150.6050899738813
 31
0.0
  0
LINE
  5
20B2
330
1F
100
AcDbEntity
  8
KONTUR
 48
10.0
100
AcDbLine
 10
149.5605453411226
 20
147.4087928669991
 30
0.0
 11
156.8423107713824
 21
147.4087928669991
 31
0.0
  0
LINE
  5
20B3
330
1F
100
AcDbEntity
  8
KONTUR
 48
10.0
100
AcDbLine
 10
148.3423107713824
 20
140.801387080764
 30
0.0
 11
148.3423107713824
 21
139.1050899738819
 31
0.0
  0
LINE
  5
20B9
330
1F
100
AcDbEntity
  8
KONKORT
 48
10.0
100
AcDbLine
 10
118.6798848609414
 20
153.4382275625135
 30
0.0
 11
127.8020798700008
 21
153.4382275625134
 31
0.0
  0
LINE
  5
20BA
330
1F
100
AcDbEntity
  8
KONCENTER
 48
10.0
100
AcDbLine
 10
118.3818650806015
 20
151.4382275625133
 30
0.0
 11
128.0818501206967
 21
151.4382275625133
 31
0.0
  0
ARC
  5
20BB
330
1F
100
AcDbEntity
  8
KONTUR
 48
10.0
100
AcDbCircle
 10
125.2708609041685
 20
153.1050899738815
 30
0.0
 40
2.0
100
AcDbArc
 50
10.35043339447028
 51
90.00000000000081
  0
LINE
  5
20C6
330
1F
100
AcDbEntity
  8
KONKORT
 48
10.0
100
AcDbLine
 10
98.67988486094146
 20
153.4382275625135
 30
0.0
 11
107.8020798700008
 21
153.4382275625134
 31
0.0
  0
LINE
  5
20C7
330
1F
100
AcDbEntity
  8
KONCENTER
 48
10.0
100
AcDbLine
 10
98.38186508060154
 20
151.4382275625133
 30
0.0
 11
108.0818501206967
 21
151.4382275625133
 31
0.0
  0
ARC
  5
20C8
330
1F
100
AcDbEntity
  8
KONTUR
 48
10.0
100
AcDbCircle
 10
101.1319952083365
 20
153.1050899738813
 30
0.0
 40
2.0
100
AcDbArc
 50
90.00000000000081
 51
169.6495666055198
  0
LINE
  5
20C9
330
1F
100
AcDbEntity
  8
KONTUR
 48
10.0
100
AcDbLine
 10
101.1319952083365
 20
155.1050899738813
 30
0.0
 11
105.2708609041685
 21
155.1050899738815
 31
0.0
  0
ARC
  5
20CA
330
1F
100
AcDbEntity
  8
KONTUR
 48
10.0
100
AcDbCircle
 10
105.2708609041685
 20
153.1050899738815
 30
0.0
 40
2.0
100
AcDbArc
 50
10.35043339447028
 51
90.00000000000081
  0
ARC
  5
20CE
330
1F
100
AcDbEntity
  8
KONTUR
 48
10.0
100
AcDbCircle
 10
121.1319952083365
 20
153.1050899738813
 30
0.0
 40
2.0
100
AcDbArc
 50
90.00000000000081
 51
169.6495666055198
  0
LINE
  5
20CF
330
1F
100
AcDbEntity
  8
KONTUR
 48
10.0
100
AcDbLine
 10
121.1319952083365
 20
155.1050899738813
 30
0.0
 11
125.2708609041685
 21
155.1050899738815
 31
0.0
  0
LINE
  5
2112
330
1F
100
AcDbEntity
  8
KONKORT
 48
10.0
100
AcDbLine
 10
138.6798848609414
 20
153.4382275625135
 30
0.0
 11
147.8020798700008
 21
153.4382275625134
 31
0.0
  0
LINE
  5
2113
330
1F
100
AcDbEntity
  8
KONCENTER
 48
10.0
100
AcDbLine
 10
138.3818650806015
 20
151.4382275625133
 30
0.0
 11
148.0818501206968
 21
151.4382275625133
 31
0.0
  0
LINE
  5
2114
330
1F
100
AcDbEntity
  8
KONTUR
 48
10.0
100
AcDbLine
 10
141.1319952083365
 20
155.1050899738813
 30
0.0
 11
145.2708609041685
 21
155.1050899738815
 31
0.0
  0
ARC
  5
211C
330
1F
100
AcDbEntity
  8
KONTUR
 48
10.0
100
AcDbCircle
 10
141.1319952083365
 20
153.1050899738813
 30
0.0
 40
2.0
100
AcDbArc
 50
90.00000000000081
 51
169.6495666055198
  0
ARC
  5
2124
330
1F
100
AcDbEntity
  8
KONTUR
 48
10.0
100
AcDbCircle
 10
145.2708609041685
 20
153.1050899738815
 30
0.0
 40
2.0
100
AcDbArc
 50
10.35043339447028
 51
90.00000000000081
  0
LINE
  5
2167
330
1F
100
AcDbEntity
  8
KONTUR
 48
10.0
100
AcDbLine
 10
168.0605453411226
 20
150.6050899738788
 30
0.0
 11
167.2383154440458
 21
153.46442635322
 31
0.0
  0
ARC
  5
2168
330
1F
100
AcDbEntity
  8
KONTUR
 48
10.0
100
AcDbCircle
 10
163.2014280562525
 20
148.9826339476693
 30
0.0
 40
2.209129667283376
100
AcDbArc
 50
0.0
 51
180.0
  0
LINE
  5
2169
330
1F
100
AcDbEntity
  8
KONTUR
 48
10.0
100
AcDbLine
 10
188.0605453411226
 20
150.6050899738788
 30
0.0
 11
187.2383154440458
 21
153.46442635322
 31
0.0
  0
LINE
  5
216A
330
1F
100
AcDbEntity
  8
KONTUR
 48
10.0
100
AcDbLine
 10
178.3423107713824
 20
150.6050899738813
 30
0.0
 11
179.1645406684592
 21
153.4644263532202
 31
0.0
  0
ARC
  5
216B
330
1F
100
AcDbEntity
  8
KONTUR
 48
10.0
100
AcDbCircle
 10
183.2014280562525
 20
148.9826339476693
 30
0.0
 40
2.209129667283376
100
AcDbArc
 50
0.0
 51
180.0
  0
LINE
  5
216C
330
1F
100
AcDbEntity
  8
KONTUR
 48
10.0
100
AcDbLine
 10
208.0605453411226
 20
150.6050899738788
 30
0.0
 11
207.2383154440458
 21
153.46442635322
 31
0.0
  0
LINE
  5
216D
330
1F
100
AcDbEntity
  8
KONTUR
 48
10.0
100
AcDbLine
 10
198.3423107713824
 20
150.6050899738813
 30
0.0
 11
199.1645406684592
 21
153.4644263532202
 31
0.0
  0
ARC
  5
216E
330
1F
100
AcDbEntity
  8
KONTUR
 48
10.0
100
AcDbCircle
 10
203.2014280562525
 20
148.9826339476693
 30
0.0
 40
2.209129667283376
100
AcDbArc
 50
0.0
 51
180.0
  0
LINE
  5
216F
330
1F
100
AcDbEntity
  8
KONTUR
 48
10.0
100
AcDbLine
 10
218.3423107713824
 20
150.6050899738813
 30
0.0
 11
219.1645406684592
 21
153.4644263532202
 31
0.0
  0
LINE
  5
2170
330
1F
100
AcDbEntity
  8
KONCENTER
 48
10.0
100
AcDbLine
 10
188.3818774630108
 20
138.9382275625133
 30
0.0
 11
198.0818625031097
 21
138.9382275625133
 31
0.0
  0
LINE
  5
2171
330
1F
100
AcDbEntity
  8
KONKORT
 48
10.0
100
AcDbLine
 10
188.3818774630108
 20
140.9382275625134
 30
0.0
 11
198.0818625031097
 21
140.9382275625134
 31
0.0
  0
LINE
  5
2172
330
1F
100
AcDbEntity
  8
KONKORT
 48
10.0
100
AcDbLine
 10
188.6798848609414
 20
136.9382275625134
 30
0.0
 11
197.8020798700008
 21
136.9382275625134
 31
0.0
  0
ARC
  5
2173
330
1F
100
AcDbEntity
  8
KONTUR
 48
10.0
100
AcDbCircle
 10
186.3422983889691
 20
140.7275460000939
 30
0.0
 40
4.65
100
AcDbArc
 50
0.0
 51
31.14970189265878
  0
ARC
  5
2174
330
1F
100
AcDbEntity
  8
KONTUR
 48
10.0
100
AcDbCircle
 10
191.6055833302812
 20
143.9087928669996
 30
0.0
 40
1.5
100
AcDbArc
 50
90.0
 51
211.1497018926483
  0
LINE
  5
2175
330
1F
100
AcDbEntity
  8
KONTUR
 48
10.0
100
AcDbLine
 10
189.5605453411226
 20
147.4087928669991
 30
0.0
 11
196.8423107713824
 21
147.4087928669991
 31
0.0
  0
ARC
  5
2176
330
1F
100
AcDbEntity
  8
KONTUR
 48
10.0
100
AcDbCircle
 10
191.1319952083365
 20
136.6050899738818
 30
0.0
 40
2.0
100
AcDbArc
 50
190.3504333944702
 51
270.0000000000008
  0
ARC
  5
2177
330
1F
100
AcDbEntity
  8
KONTUR
 48
10.0
100
AcDbCircle
 10
175.2708609041685
 20
136.6050899738818
 30
0.0
 40
2.0
100
AcDbArc
 50
270.0000000000008
 51
349.6495666055198
  0
ARC
  5
2178
330
1F
100
AcDbEntity
  8
KONTUR
 48
10.0
100
AcDbCircle
 10
171.1319952083365
 20
136.6050899738818
 30
0.0
 40
2.0
100
AcDbArc
 50
190.3504333944702
 51
270.0000000000008
  0
LINE
  5
2179
330
1F
100
AcDbEntity
  8
KONTUR
 48
10.0
100
AcDbLine
 10
175.2708609041685
 20
134.6050899738818
 30
0.0
 11
171.1319952083365
 21
134.6050899738818
 31
0.0
  0
LINE
  5
217A
330
1F
100
AcDbEntity
  8
KONCENTER
 48
10.0
100
AcDbLine
 10
168.3818774630108
 20
138.9382275625133
 30
0.0
 11
178.0818625031097
 21
138.9382275625133
 31
0.0
  0
LINE
  5
217B
330
1F
100
AcDbEntity
  8
KONKORT
 48
10.0
100
AcDbLine
 10
168.3818774630108
 20
140.9382275625134
 30
0.0
 11
178.0818625031097
 21
140.9382275625134
 31
0.0
  0
LINE
  5
217C
330
1F
100
AcDbEntity
  8
KONKORT
 48
10.0
100
AcDbLine
 10
168.6798848609414
 20
136.9382275625134
 30
0.0
 11
177.8020798700008
 21
136.9382275625134
 31
0.0
  0
ARC
  5
217D
330
1F
100
AcDbEntity
  8
KONTUR
 48
10.0
100
AcDbCircle
 10
173.2014280562525
 20
140.7275460000939
 30
0.0
 40
2.209129667283376
100
AcDbArc
 50
180.0
 51
0.0
  0
LINE
  5
217E
330
1F
100
AcDbEntity
  8
KONTUR
 48
10.0
100
AcDbLine
 10
174.7972727822229
 20
145.4087928669996
 30
0.0
 11
171.6055833302812
 21
145.4087928669996
 31
0.0
  0
LINE
  5
217F
330
1F
100
AcDbEntity
  8
KONTUR
 48
10.0
100
AcDbLine
 10
169.5605453411226
 20
147.4087928669991
 30
0.0
 11
176.8423107713824
 21
147.4087928669991
 31
0.0
  0
ARC
  5
2180
330
1F
100
AcDbEntity
  8
KONTUR
 48
10.0
100
AcDbCircle
 10
169.5605453411226
 20
149.0425422716915
 30
0.0
 40
1.5
100
AcDbArc
 50
180.0
 51
219.9005516681941
  0
ARC
  5
2181
330
1F
100
AcDbEntity
  8
KONTUR
 48
10.0
100
AcDbCircle
 10
169.66863683637
 20
148.9087928669991
 30
0.0
 40
1.5
100
AcDbArc
 50
217.9872613036091
 51
270.0
  0
ARC
  5
2182
330
1F
100
AcDbEntity
  8
KONTUR
 48
10.0
100
AcDbCircle
 10
165.6096766165646
 20
145.7390386282539
 30
0.0
 40
3.649999999999999
100
AcDbArc
 50
37.98726130360943
 51
39.90055166819321
  0
ARC
  5
2183
330
1F
100
AcDbEntity
  8
KONTUR
 48
10.0
100
AcDbCircle
 10
166.8423107713824
 20
140.801387080764
 30
0.0
 40
1.5
100
AcDbArc
 50
0.0
 51
90.0
  0
LINE
  5
2184
330
1F
100
AcDbEntity
  8
KONTUR
 48
10.0
100
AcDbLine
 10
168.0605453411226
 20
149.0425422716915
 30
0.0
 11
168.0605453411226
 21
150.6050899738813
 31
0.0
  0
LINE
  5
2185
330
1F
100
AcDbEntity
  8
KONTUR
 48
10.0
100
AcDbLine
 10
166.8423107713824
 20
142.301387080764
 30
0.0
 11
159.5605453411226
 21
142.301387080764
 31
0.0
  0
ARC
  5
2186
330
1F
100
AcDbEntity
  8
KONTUR
 48
10.0
100
AcDbCircle
 10
156.34229838897
 20
148.9826339476694
 30
0.0
 40
4.65
100
AcDbArc
 50
328.8502981073412
 51
0.0
  0
ARC
  5
2187
330
1F
100
AcDbEntity
  8
KONTUR
 48
10.0
100
AcDbCircle
 10
161.6055833302821
 20
145.8013870807636
 30
0.0
 40
1.5
100
AcDbArc
 50
148.8502981073516
 51
270.0
  0
LINE
  5
2188
330
1F
100
AcDbEntity
  8
KONTUR
 48
10.0
100
AcDbLine
 10
161.6055833302821
 20
144.3013870807637
 30
0.0
 11
164.7972727822239
 21
144.3013870807637
 31
0.0
  0
ARC
  5
2189
330
1F
100
AcDbEntity
  8
KONTUR
 48
10.0
100
AcDbCircle
 10
164.7972727822239
 20
145.8013870807636
 30
0.0
 40
1.5
100
AcDbArc
 50
270.0
 51
31.14970189264837
  0
ARC
  5
218A
330
1F
100
AcDbEntity
  8
KONTUR
 48
10.0
100
AcDbCircle
 10
170.060557723536
 20
148.9826339476694
 30
0.0
 40
4.65
100
AcDbArc
 50
180.0
 51
211.1497018926587
  0
LINE
  5
218B
330
1F
100
AcDbEntity
  8
KONTUR
 48
10.0
100
AcDbLine
 10
168.3423107713824
 20
139.1050899738819
 30
0.0
 11
169.1645406684592
 21
136.2457535945429
 31
0.0
  0
ARC
  5
218C
330
1F
100
AcDbEntity
  8
KONTUR
 48
10.0
100
AcDbCircle
 10
166.342298388969
 20
140.7275460000939
 30
0.0
 40
4.65
100
AcDbArc
 50
0.0
 51
31.14970189265878
  0
ARC
  5
218D
330
1F
100
AcDbEntity
  8
KONTUR
 48
10.0
100
AcDbCircle
 10
171.6055833302812
 20
143.9087928669996
 30
0.0
 40
1.5
100
AcDbArc
 50
90.0
 51
211.1497018926483
  0
LINE
  5
218E
330
1F
100
AcDbEntity
  8
KONTUR
 48
10.0
100
AcDbLine
 10
168.3423107713824
 20
140.801387080764
 30
0.0
 11
168.3423107713824
 21
139.1050899738819
 31
0.0
  0
LINE
  5
218F
330
1F
100
AcDbEntity
  8
KONKORT
 48
10.0
100
AcDbLine
 10
178.3818650806015
 20
149.4382275625135
 30
0.0
 11
188.0818501206968
 21
149.4382275625134
 31
0.0
  0
ARC
  5
2190
330
1F
100
AcDbEntity
  8
KONTUR
 48
10.0
100
AcDbCircle
 10
189.5605453411226
 20
149.0425422716915
 30
0.0
 40
1.5
100
AcDbArc
 50
180.0
 51
219.9005516681941
  0
ARC
  5
2191
330
1F
100
AcDbEntity
  8
KONTUR
 48
10.0
100
AcDbCircle
 10
189.66863683637
 20
148.9087928669991
 30
0.0
 40
1.5
100
AcDbArc
 50
217.9872613036091
 51
270.0
  0
ARC
  5
2192
330
1F
100
AcDbEntity
  8
KONTUR
 48
10.0
100
AcDbCircle
 10
185.6096766165646
 20
145.7390386282539
 30
0.0
 40
3.649999999999999
100
AcDbArc
 50
37.98726130360943
 51
39.90055166819321
  0
ARC
  5
2193
330
1F
100
AcDbEntity
  8
KONTUR
 48
10.0
100
AcDbCircle
 10
186.8423107713824
 20
140.801387080764
 30
0.0
 40
1.5
100
AcDbArc
 50
0.0
 51
90.0
  0
LINE
  5
2194
330
1F
100
AcDbEntity
  8
KONTUR
 48
10.0
100
AcDbLine
 10
188.0605453411226
 20
149.0425422716915
 30
0.0
 11
188.0605453411226
 21
150.6050899738813
 31
0.0
  0
LINE
  5
2195
330
1F
100
AcDbEntity
  8
KONTUR
 48
10.0
100
AcDbLine
 10
178.0605453411226
 20
139.1050899738819
 30
0.0
 11
177.2383154440458
 21
136.2457535945429
 31
0.0
  0
ARC
  5
2196
330
1F
100
AcDbEntity
  8
KONTUR
 48
10.0
100
AcDbCircle
 10
179.5605453411226
 20
140.801387080764
 30
0.0
 40
1.5
100
AcDbArc
 50
90.0
 51
180.0
  0
LINE
  5
2197
330
1F
100
AcDbEntity
  8
KONTUR
 48
10.0
100
AcDbLine
 10
178.0605453411226
 20
140.801387080764
 30
0.0
 11
178.0605453411226
 21
139.1050899738819
 31
0.0
  0
LINE
  5
2198
330
1F
100
AcDbEntity
  8
KONTUR
 48
10.0
100
AcDbLine
 10
186.8423107713824
 20
142.301387080764
 30
0.0
 11
179.5605453411226
 21
142.301387080764
 31
0.0
  0
ARC
  5
2199
330
1F
100
AcDbEntity
  8
KONTUR
 48
10.0
100
AcDbCircle
 10
176.3422983889699
 20
148.9826339476694
 30
0.0
 40
4.65
100
AcDbArc
 50
328.8502981073412
 51
0.0
  0
ARC
  5
219A
330
1F
100
AcDbEntity
  8
KONTUR
 48
10.0
100
AcDbCircle
 10
181.6055833302821
 20
145.8013870807636
 30
0.0
 40
1.5
100
AcDbArc
 50
148.8502981073516
 51
270.0
  0
LINE
  5
219B
330
1F
100
AcDbEntity
  8
KONTUR
 48
10.0
100
AcDbLine
 10
181.6055833302821
 20
144.3013870807637
 30
0.0
 11
184.7972727822239
 21
144.3013870807637
 31
0.0
  0
ARC
  5
219C
330
1F
100
AcDbEntity
  8
KONTUR
 48
10.0
100
AcDbCircle
 10
184.7972727822239
 20
145.8013870807636
 30
0.0
 40
1.5
100
AcDbArc
 50
270.0
 51
31.14970189264837
  0
ARC
  5
219D
330
1F
100
AcDbEntity
  8
KONTUR
 48
10.0
100
AcDbCircle
 10
190.060557723536
 20
148.9826339476694
 30
0.0
 40
4.65
100
AcDbArc
 50
180.0
 51
211.1497018926587
  0
ARC
  5
219E
330
1F
100
AcDbEntity
  8
KONTUR
 48
10.0
100
AcDbCircle
 10
174.7972727822229
 20
143.9087928669996
 30
0.0
 40
1.5
100
AcDbArc
 50
328.8502981073516
 51
90.0
  0
ARC
  5
219F
330
1F
100
AcDbEntity
  8
KONTUR
 48
10.0
100
AcDbCircle
 10
180.0605577235351
 20
140.7275460000939
 30
0.0
 40
4.65
100
AcDbArc
 50
148.8502981073412
 51
180.0
  0
ARC
  5
21A0
330
1F
100
AcDbEntity
  8
KONTUR
 48
10.0
100
AcDbCircle
 10
176.8423107713824
 20
148.9087928669991
 30
0.0
 40
1.5
100
AcDbArc
 50
270.0
 51
0.0
  0
LINE
  5
21A1
330
1F
100
AcDbEntity
  8
KONTUR
 48
10.0
100
AcDbLine
 10
178.3423107713824
 20
148.9087928669991
 30
0.0
 11
178.3423107713824
 21
150.6050899738813
 31
0.0
  0
LINE
  5
21A2
330
1F
100
AcDbEntity
  8
KONTUR
 48
10.0
100
AcDbLine
 10
188.3423107713824
 20
139.1050899738819
 30
0.0
 11
189.1645406684592
 21
136.2457535945429
 31
0.0
  0
LINE
  5
21A3
330
1F
100
AcDbEntity
  8
KONTUR
 48
10.0
100
AcDbLine
 10
188.3423107713824
 20
140.801387080764
 30
0.0
 11
188.3423107713824
 21
139.1050899738819
 31
0.0
  0
ARC
  5
21A4
330
1F
100
AcDbEntity
  8
KONTUR
 48
10.0
100
AcDbCircle
 10
195.2708609041685
 20
136.6050899738818
 30
0.0
 40
2.0
100
AcDbArc
 50
270.0000000000008
 51
349.6495666055198
  0
ARC
  5
21A5
330
1F
100
AcDbEntity
  8
KONTUR
 48
10.0
100
AcDbCircle
 10
215.2708609041685
 20
136.6050899738818
 30
0.0
 40
2.0
100
AcDbArc
 50
270.0000000000008
 51
349.6495666055198
  0
ARC
  5
21A6
330
1F
100
AcDbEntity
  8
KONTUR
 48
10.0
100
AcDbCircle
 10
211.1319952083365
 20
136.6050899738818
 30
0.0
 40
2.0
100
AcDbArc
 50
190.3504333944702
 51
270.0000000000008
  0
LINE
  5
21A7
330
1F
100
AcDbEntity
  8
KONTUR
 48
10.0
100
AcDbLine
 10
195.2708609041685
 20
134.6050899738818
 30
0.0
 11
191.1319952083365
 21
134.6050899738818
 31
0.0
  0
LINE
  5
21A8
330
1F
100
AcDbEntity
  8
KONTUR
 48
10.0
100
AcDbLine
 10
215.2708609041685
 20
134.6050899738818
 30
0.0
 11
211.1319952083365
 21
134.6050899738818
 31
0.0
  0
LINE
  5
21A9
330
1F
100
AcDbEntity
  8
KONKORT
 48
10.0
100
AcDbLine
 10
198.3818650806015
 20
149.4382275625135
 30
0.0
 11
208.0818501206968
 21
149.4382275625134
 31
0.0
  0
LINE
  5
21AA
330
1F
100
AcDbEntity
  8
KONTUR
 48
10.0
100
AcDbLine
 10
206.8423107713824
 20
142.301387080764
 30
0.0
 11
199.5605453411226
 21
142.301387080764
 31
0.0
  0
ARC
  5
21AB
330
1F
100
AcDbEntity
  8
KONTUR
 48
10.0
100
AcDbCircle
 10
204.7972727822239
 20
145.8013870807636
 30
0.0
 40
1.5
100
AcDbArc
 50
270.0
 51
31.14970189264837
  0
LINE
  5
21AC
330
1F
100
AcDbEntity
  8
KONTUR
 48
10.0
100
AcDbLine
 10
198.0605453411226
 20
139.1050899738819
 30
0.0
 11
197.2383154440458
 21
136.2457535945429
 31
0.0
  0
ARC
  5
21AD
330
1F
100
AcDbEntity
  8
KONTUR
 48
10.0
100
AcDbCircle
 10
199.5605453411226
 20
140.801387080764
 30
0.0
 40
1.5
100
AcDbArc
 50
90.0
 51
180.0
  0
LINE
  5
21AE
330
1F
100
AcDbEntity
  8
KONTUR
 48
10.0
100
AcDbLine
 10
198.0605453411226
 20
140.801387080764
 30
0.0
 11
198.0605453411226
 21
139.1050899738819
 31
0.0
  0
ARC
  5
21AF
330
1F
100
AcDbEntity
  8
KONTUR
 48
10.0
100
AcDbCircle
 10
196.3422983889699
 20
148.9826339476694
 30
0.0
 40
4.65
100
AcDbArc
 50
328.8502981073412
 51
0.0
  0
ARC
  5
21B0
330
1F
100
AcDbEntity
  8
KONTUR
 48
10.0
100
AcDbCircle
 10
201.6055833302821
 20
145.8013870807636
 30
0.0
 40
1.5
100
AcDbArc
 50
148.8502981073516
 51
270.0
  0
LINE
  5
21B1
330
1F
100
AcDbEntity
  8
KONTUR
 48
10.0
100
AcDbLine
 10
201.6055833302821
 20
144.3013870807637
 30
0.0
 11
204.7972727822239
 21
144.3013870807637
 31
0.0
  0
ARC
  5
21B2
330
1F
100
AcDbEntity
  8
KONTUR
 48
10.0
100
AcDbCircle
 10
210.060557723536
 20
148.9826339476694
 30
0.0
 40
4.65
100
AcDbArc
 50
180.0
 51
211.1497018926587
  0
ARC
  5
21B3
330
1F
100
AcDbEntity
  8
KONTUR
 48
10.0
100
AcDbCircle
 10
194.7972727822229
 20
143.9087928669996
 30
0.0
 40
1.5
100
AcDbArc
 50
328.8502981073516
 51
90.0
  0
ARC
  5
21B4
330
1F
100
AcDbEntity
  8
KONTUR
 48
10.0
100
AcDbCircle
 10
193.2014280562525
 20
140.7275460000939
 30
0.0
 40
2.209129667283376
100
AcDbArc
 50
180.0
 51
0.0
  0
LINE
  5
21B5
330
1F
100
AcDbEntity
  8
KONTUR
 48
10.0
100
AcDbLine
 10
194.7972727822229
 20
145.4087928669996
 30
0.0
 11
191.6055833302812
 21
145.4087928669996
 31
0.0
  0
ARC
  5
21B6
330
1F
100
AcDbEntity
  8
KONTUR
 48
10.0
100
AcDbCircle
 10
200.0605577235351
 20
140.7275460000939
 30
0.0
 40
4.65
100
AcDbArc
 50
148.8502981073412
 51
180.0
  0
ARC
  5
21B7
330
1F
100
AcDbEntity
  8
KONTUR
 48
10.0
100
AcDbCircle
 10
196.8423107713824
 20
148.9087928669991
 30
0.0
 40
1.5
100
AcDbArc
 50
270.0
 51
0.0
  0
LINE
  5
21B8
330
1F
100
AcDbEntity
  8
KONTUR
 48
10.0
100
AcDbLine
 10
198.3423107713824
 20
148.9087928669991
 30
0.0
 11
198.3423107713824
 21
150.6050899738813
 31
0.0
  0
LINE
  5
21B9
330
1F
100
AcDbEntity
  8
KONCENTER
 48
10.0
100
AcDbLine
 10
208.3818774630108
 20
138.9382275625133
 30
0.0
 11
218.0818625031097
 21
138.9382275625133
 31
0.0
  0
LINE
  5
21BA
330
1F
100
AcDbEntity
  8
KONKORT
 48
10.0
100
AcDbLine
 10
208.3818774630108
 20
140.9382275625134
 30
0.0
 11
218.0818625031097
 21
140.9382275625134
 31
0.0
  0
LINE
  5
21BB
330
1F
100
AcDbEntity
  8
KONKORT
 48
10.0
100
AcDbLine
 10
208.6798848609414
 20
136.9382275625134
 30
0.0
 11
217.8020798700008
 21
136.9382275625134
 31
0.0
  0
ARC
  5
21BC
330
1F
100
AcDbEntity
  8
KONTUR
 48
10.0
100
AcDbCircle
 10
209.5605453411226
 20
149.0425422716915
 30
0.0
 40
1.5
100
AcDbArc
 50
180.0
 51
219.9005516681941
  0
ARC
  5
21BD
330
1F
100
AcDbEntity
  8
KONTUR
 48
10.0
100
AcDbCircle
 10
209.66863683637
 20
148.9087928669991
 30
0.0
 40
1.5
100
AcDbArc
 50
217.9872613036091
 51
270.0
  0
ARC
  5
21BE
330
1F
100
AcDbEntity
  8
KONTUR
 48
10.0
100
AcDbCircle
 10
205.6096766165647
 20
145.7390386282539
 30
0.0
 40
3.649999999999999
100
AcDbArc
 50
37.98726130360943
 51
39.90055166819321
  0
ARC
  5
21BF
330
1F
100
AcDbEntity
  8
KONTUR
 48
10.0
100
AcDbCircle
 10
206.8423107713824
 20
140.801387080764
 30
0.0
 40
1.5
100
AcDbArc
 50
0.0
 51
90.0
  0
LINE
  5
21C0
330
1F
100
AcDbEntity
  8
KONTUR
 48
10.0
100
AcDbLine
 10
208.0605453411226
 20
149.0425422716915
 30
0.0
 11
208.0605453411226
 21
150.6050899738813
 31
0.0
  0
LINE
  5
21C1
330
1F
100
AcDbEntity
  8
KONTUR
 48
10.0
100
AcDbLine
 10
218.0605453411226
 20
139.1050899738819
 30
0.0
 11
217.2383154440458
 21
136.2457535945429
 31
0.0
  0
LINE
  5
21C2
330
1F
100
AcDbEntity
  8
KONTUR
 48
10.0
100
AcDbLine
 10
208.3423107713824
 20
139.1050899738819
 30
0.0
 11
209.1645406684592
 21
136.2457535945429
 31
0.0
  0
ARC
  5
21C3
330
1F
100
AcDbEntity
  8
KONTUR
 48
10.0
100
AcDbCircle
 10
219.5605453411226
 20
140.801387080764
 30
0.0
 40
1.5
100
AcDbArc
 50
90.0
 51
180.0
  0
LINE
  5
21C4
330
1F
100
AcDbEntity
  8
KONTUR
 48
10.0
100
AcDbLine
 10
218.0605453411226
 20
140.801387080764
 30
0.0
 11
218.0605453411226
 21
139.1050899738819
 31
0.0
  0
ARC
  5
21C5
330
1F
100
AcDbEntity
  8
KONTUR
 48
10.0
100
AcDbCircle
 10
216.34229838897
 20
148.9826339476694
 30
0.0
 40
4.65
100
AcDbArc
 50
328.8502981073412
 51
0.0
  0
ARC
  5
21C6
330
1F
100
AcDbEntity
  8
KONTUR
 48
10.0
100
AcDbCircle
 10
221.6055833302821
 20
145.8013870807636
 30
0.0
 40
1.5
100
AcDbArc
 50
148.8502981073516
 51
270.0
  0
ARC
  5
21C7
330
1F
100
AcDbEntity
  8
KONTUR
 48
10.0
100
AcDbCircle
 10
214.7972727822229
 20
143.9087928669996
 30
0.0
 40
1.5
100
AcDbArc
 50
328.8502981073516
 51
90.0
  0
ARC
  5
21C8
330
1F
100
AcDbEntity
  8
KONTUR
 48
10.0
100
AcDbCircle
 10
213.2014280562525
 20
140.7275460000939
 30
0.0
 40
2.209129667283376
100
AcDbArc
 50
180.0
 51
0.0
  0
ARC
  5
21C9
330
1F
100
AcDbEntity
  8
KONTUR
 48
10.0
100
AcDbCircle
 10
206.342298388969
 20
140.7275460000939
 30
0.0
 40
4.65
100
AcDbArc
 50
0.0
 51
31.14970189265878
  0
LINE
  5
21CA
330
1F
100
AcDbEntity
  8
KONTUR
 48
10.0
100
AcDbLine
 10
214.7972727822229
 20
145.4087928669996
 30
0.0
 11
211.6055833302811
 21
145.4087928669996
 31
0.0
  0
ARC
  5
21CB
330
1F
100
AcDbEntity
  8
KONTUR
 48
10.0
100
AcDbCircle
 10
220.060557723535
 20
140.7275460000939
 30
0.0
 40
4.65
100
AcDbArc
 50
148.8502981073412
 51
180.0
  0
ARC
  5
21CC
330
1F
100
AcDbEntity
  8
KONTUR
 48
10.0
100
AcDbCircle
 10
211.6055833302811
 20
143.9087928669996
 30
0.0
 40
1.5
100
AcDbArc
 50
90.0
 51
211.1497018926483
  0
ARC
  5
21CD
330
1F
100
AcDbEntity
  8
KONTUR
 48
10.0
100
AcDbCircle
 10
216.8423107713824
 20
148.9087928669991
 30
0.0
 40
1.5
100
AcDbArc
 50
270.0
 51
0.0
  0
LINE
  5
21CE
330
1F
100
AcDbEntity
  8
KONTUR
 48
10.0
100
AcDbLine
 10
218.3423107713824
 20
148.9087928669991
 30
0.0
 11
218.3423107713824
 21
150.6050899738813
 31
0.0
  0
LINE
  5
21CF
330
1F
100
AcDbEntity
  8
KONTUR
 48
10.0
100
AcDbLine
 10
209.5605453411226
 20
147.4087928669991
 30
0.0
 11
216.8423107713824
 21
147.4087928669991
 31
0.0
  0
LINE
  5
21D0
330
1F
100
AcDbEntity
  8
KONTUR
 48
10.0
100
AcDbLine
 10
208.3423107713824
 20
140.801387080764
 30
0.0
 11
208.3423107713824
 21
139.1050899738819
 31
0.0
  0
LINE
  5
21E5
330
1F
100
AcDbEntity
  8
KONKORT
 48
10.0
100
AcDbLine
 10
158.6798848609414
 20
153.4382275625135
 30
0.0
 11
167.8020798700008
 21
153.4382275625134
 31
0.0
  0
ARC
  5
21E6
330
1F
100
AcDbEntity
  8
KONTUR
 48
10.0
100
AcDbCircle
 10
161.1319952083365
 20
153.1050899738813
 30
0.0
 40
2.0
100
AcDbArc
 50
90.00000000000081
 51
169.6495666055198
  0
LINE
  5
21E7
330
1F
100
AcDbEntity
  8
KONTUR
 48
10.0
100
AcDbLine
 10
161.1319952083365
 20
155.1050899738813
 30
0.0
 11
165.2708609041685
 21
155.1050899738815
 31
0.0
  0
ARC
  5
21E8
330
1F
100
AcDbEntity
  8
KONTUR
 48
10.0
100
AcDbCircle
 10
165.2708609041685
 20
153.1050899738815
 30
0.0
 40
2.0
100
AcDbArc
 50
10.35043339447028
 51
90.00000000000081
  0
LINE
  5
21EC
330
1F
100
AcDbEntity
  8
KONKORT
 48
10.0
100
AcDbLine
 10
178.6798848609414
 20
153.4382275625135
 30
0.0
 11
187.8020798700008
 21
153.4382275625134
 31
0.0
  0
LINE
  5
21ED
330
1F
100
AcDbEntity
  8
KONCENTER
 48
10.0
100
AcDbLine
 10
178.3818650806015
 20
151.4382275625133
 30
0.0
 11
188.0818501206968
 21
151.4382275625133
 31
0.0
  0
ARC
  5
21EE
330
1F
100
AcDbEntity
  8
KONTUR
 48
10.0
100
AcDbCircle
 10
181.1319952083365
 20
153.1050899738813
 30
0.0
 40
2.0
100
AcDbArc
 50
90.00000000000081
 51
169.6495666055198
  0
LINE
  5
21EF
330
1F
100
AcDbEntity
  8
KONTUR
 48
10.0
100
AcDbLine
 10
181.1319952083365
 20
155.1050899738813
 30
0.0
 11
185.2708609041685
 21
155.1050899738815
 31
0.0
  0
ARC
  5
21F0
330
1F
100
AcDbEntity
  8
KONTUR
 48
10.0
100
AcDbCircle
 10
185.2708609041685
 20
153.1050899738815
 30
0.0
 40
2.0
100
AcDbArc
 50
10.35043339447028
 51
90.00000000000081
  0
LINE
  5
2233
330
1F
100
AcDbEntity
  8
KONKORT
 48
10.0
100
AcDbLine
 10
198.6798848609414
 20
153.4382275625135
 30
0.0
 11
207.8020798700008
 21
153.4382275625134
 31
0.0
  0
LINE
  5
2234
330
1F
100
AcDbEntity
  8
KONCENTER
 48
10.0
100
AcDbLine
 10
198.3818650806015
 20
151.4382275625133
 30
0.0
 11
208.0818501206968
 21
151.4382275625133
 31
0.0
  0
ARC
  5
2235
330
1F
100
AcDbEntity
  8
KONTUR
 48
10.0
100
AcDbCircle
 10
205.2708609041685
 20
153.1050899738815
 30
0.0
 40
2.0
100
AcDbArc
 50
10.35043339447028
 51
90.00000000000081
  0
ARC
  5
2239
330
1F
100
AcDbEntity
  8
KONTUR
 48
10.0
100
AcDbCircle
 10
201.1319952083365
 20
153.1050899738813
 30
0.0
 40
2.0
100
AcDbArc
 50
90.00000000000081
 51
169.6495666055198
  0
LINE
  5
223A
330
1F
100
AcDbEntity
  8
KONTUR
 48
10.0
100
AcDbLine
 10
201.1319952083365
 20
155.1050899738813
 30
0.0
 11
205.2708609041685
 21
155.1050899738815
 31
0.0
  0
ARC
  5
2242
330
1F
100
AcDbEntity
  8
KONTUR
 48
10.0
100
AcDbCircle
 10
221.1319952083365
 20
153.1050899738813
 30
0.0
 40
2.0
100
AcDbArc
 50
90.00000000000081
 51
169.6495666055198
  0
LINE
  5
2702
330
1F
100
AcDbEntity
  8
KONTUR
 48
10.0
100
AcDbLine
 10
228.0605453411226
 20
150.6050899738788
 30
0.0
 11
227.2383154440458
 21
153.46442635322
 31
0.0
  0
LINE
  5
2703
330
1F
100
AcDbEntity
  8
KONTUR
 48
10.0
100
AcDbLine
 10
238.3423107713824
 20
150.6050899738813
 30
0.0
 11
239.1645406684592
 21
153.4644263532202
 31
0.0
  0
LINE
  5
2704
330
1F
100
AcDbEntity
  8
KONTUR
 48
10.0
100
AcDbLine
 10
248.0605453411226
 20
150.6050899738788
 30
0.0
 11
247.2383154440458
 21
153.46442635322
 31
0.0
  0
ARC
  5
2705
330
1F
100
AcDbEntity
  8
KONTUR
 48
10.0
100
AcDbCircle
 10
243.2014280562525
 20
148.9826339476693
 30
0.0
 40
2.209129667283376
100
AcDbArc
 50
0.0
 51
180.0
  0
LINE
  5
2706
330
1F
100
AcDbEntity
  8
KONTUR
 48
10.0
100
AcDbLine
 10
271.584498317454
 20
151.9315895814719
 30
0.0
 11
272.6020339667986
 21
146.4704359174941
 31
0.0
  0
CIRCLE
  5
2707
330
1F
100
AcDbEntity
  8
KONTUR
 48
10.0
100
AcDbCircle
 10
276.052319034565
 20
151.4382450440746
 30
0.0
 40
2.000000000000171
  0
LINE
  5
2708
330
1F
100
AcDbEntity
  8
KONTUR
 48
10.0
100
AcDbLine
 10
280.0522807155359
 20
138.1382625256366
 30
0.0
 11
280.0522807155359
 21
152.2382275625131
 31
0.0
  0
ARC
  5
2709
330
1F
100
AcDbEntity
  8
KONTUR
 48
10.0
100
AcDbCircle
 10
231.1319952083365
 20
136.6050899738818
 30
0.0
 40
2.0
100
AcDbArc
 50
190.3504333944702
 51
270.0000000000008
  0
ARC
  5
270A
330
1F
100
AcDbEntity
  8
KONTUR
 48
10.0
100
AcDbCircle
 10
235.2708609041685
 20
136.6050899738818
 30
0.0
 40
2.0
100
AcDbArc
 50
270.0000000000008
 51
349.6495666055198
  0
ARC
  5
270B
330
1F
100
AcDbEntity
  8
KONTUR
 48
10.0
100
AcDbCircle
 10
251.1319952083365
 20
136.6050899738818
 30
0.0
 40
2.0
100
AcDbArc
 50
190.3504333944802
 51
269.9999999999992
  0
LINE
  5
270C
330
1F
100
AcDbEntity
  8
KONTUR
 48
10.0
100
AcDbLine
 10
253.2014280562525
 20
138.5184163328106
 30
0.0
 11
253.2014280562525
 21
134.6050899738818
 31
0.0
  0
LINE
  5
270D
330
1F
100
AcDbEntity
  8
KONTUR
 48
10.0
100
AcDbLine
 10
235.2708609041685
 20
134.6050899738818
 30
0.0
 11
231.1319952083365
 21
134.6050899738818
 31
0.0
  0
LINE
  5
270E
330
1F
100
AcDbEntity
  8
KONTUR
 48
10.0
100
AcDbLine
 10
251.1319952083365
 20
134.6050899738818
 30
0.0
 11
253.2014280562525
 21
134.6050899738818
 31
0.0
  0
LINE
  5
270F
330
1F
100
AcDbEntity
  8
KONKORT
 48
10.0
100
AcDbLine
 10
228.3818774630108
 20
140.9382275625134
 30
0.0
 11
238.0818625031097
 21
140.9382275625134
 31
0.0
  0
LINE
  5
2710
330
1F
100
AcDbEntity
  8
KONCENTER
 48
10.0
100
AcDbLine
 10
228.3818774630108
 20
138.9382275625133
 30
0.0
 11
238.0818625031097
 21
138.9382275625133
 31
0.0
  0
ARC
  5
2711
330
1F
100
AcDbEntity
  8
KONTUR
 48
10.0
100
AcDbCircle
 10
236.8423107713824
 20
148.9087928669991
 30
0.0
 40
1.5
100
AcDbArc
 50
270.0
 51
0.0
  0
ARC
  5
2712
330
1F
100
AcDbEntity
  8
KONTUR
 48
10.0
100
AcDbCircle
 10
239.5605453411226
 20
140.801387080764
 30
0.0
 40
1.5
100
AcDbArc
 50
90.0
 51
180.0
  0
LINE
  5
2713
330
1F
100
AcDbEntity
  8
KONTUR
 48
10.0
100
AcDbLine
 10
238.0605453411226
 20
139.1050899738819
 30
0.0
 11
237.2383154440458
 21
136.2457535945429
 31
0.0
  0
LINE
  5
2714
330
1F
100
AcDbEntity
  8
KONKORT
 48
10.0
100
AcDbLine
 10
228.6798848609414
 20
136.9382275625134
 30
0.0
 11
237.8020798700008
 21
136.9382275625134
 31
0.0
  0
ARC
  5
2715
330
1F
100
AcDbEntity
  8
KONTUR
 48
10.0
100
AcDbCircle
 10
229.5605453411226
 20
149.0425422716915
 30
0.0
 40
1.5
100
AcDbArc
 50
180.0
 51
219.9005516681941
  0
ARC
  5
2716
330
1F
100
AcDbEntity
  8
KONTUR
 48
10.0
100
AcDbCircle
 10
229.66863683637
 20
148.9087928669991
 30
0.0
 40
1.5
100
AcDbArc
 50
217.9872613036091
 51
270.0
  0
ARC
  5
2717
330
1F
100
AcDbEntity
  8
KONTUR
 48
10.0
100
AcDbCircle
 10
225.6096766165646
 20
145.7390386282539
 30
0.0
 40
3.649999999999999
100
AcDbArc
 50
37.98726130360943
 51
39.90055166819321
  0
ARC
  5
2718
330
1F
100
AcDbEntity
  8
KONTUR
 48
10.0
100
AcDbCircle
 10
226.8423107713824
 20
140.801387080764
 30
0.0
 40
1.5
100
AcDbArc
 50
0.0
 51
90.0
  0
LINE
  5
2719
330
1F
100
AcDbEntity
  8
KONTUR
 48
10.0
100
AcDbLine
 10
228.0605453411226
 20
149.0425422716915
 30
0.0
 11
228.0605453411226
 21
150.6050899738813
 31
0.0
  0
ARC
  5
271A
330
1F
100
AcDbEntity
  8
KONTUR
 48
10.0
100
AcDbCircle
 10
224.7972727822239
 20
145.8013870807636
 30
0.0
 40
1.5
100
AcDbArc
 50
270.0
 51
31.14970189264837
  0
ARC
  5
271B
330
1F
100
AcDbEntity
  8
KONTUR
 48
10.0
100
AcDbCircle
 10
230.060557723536
 20
148.9826339476694
 30
0.0
 40
4.65
100
AcDbArc
 50
180.0
 51
211.1497018926587
  0
LINE
  5
271C
330
1F
100
AcDbEntity
  8
KONTUR
 48
10.0
100
AcDbLine
 10
228.3423107713824
 20
140.801387080764
 30
0.0
 11
228.3423107713824
 21
139.1050899738819
 31
0.0
  0
ARC
  5
271D
330
1F
100
AcDbEntity
  8
KONTUR
 48
10.0
100
AcDbCircle
 10
231.6055833302812
 20
143.9087928669996
 30
0.0
 40
1.5
100
AcDbArc
 50
90.0
 51
211.1497018926483
  0
ARC
  5
271E
330
1F
100
AcDbEntity
  8
KONTUR
 48
10.0
100
AcDbCircle
 10
240.0605577235351
 20
140.7275460000939
 30
0.0
 40
4.65
100
AcDbArc
 50
148.8502981073412
 51
180.0
  0
LINE
  5
271F
330
1F
100
AcDbEntity
  8
KONTUR
 48
10.0
100
AcDbLine
 10
234.7972727822229
 20
145.4087928669996
 30
0.0
 11
231.6055833302812
 21
145.4087928669996
 31
0.0
  0
ARC
  5
2720
330
1F
100
AcDbEntity
  8
KONTUR
 48
10.0
100
AcDbCircle
 10
226.342298388969
 20
140.7275460000939
 30
0.0
 40
4.65
100
AcDbArc
 50
0.0
 51
31.14970189265878
  0
ARC
  5
2721
330
1F
100
AcDbEntity
  8
KONTUR
 48
10.0
100
AcDbCircle
 10
233.2014280562525
 20
140.7275460000939
 30
0.0
 40
2.209129667283376
100
AcDbArc
 50
180.0
 51
0.0
  0
LINE
  5
2722
330
1F
100
AcDbEntity
  8
KONTUR
 48
10.0
100
AcDbLine
 10
229.5605453411226
 20
147.4087928669991
 30
0.0
 11
236.8423107713824
 21
147.4087928669991
 31
0.0
  0
ARC
  5
2723
330
1F
100
AcDbEntity
  8
KONTUR
 48
10.0
100
AcDbCircle
 10
234.7972727822229
 20
143.9087928669996
 30
0.0
 40
1.5
100
AcDbArc
 50
328.8502981073516
 51
90.0
  0
LINE
  5
2724
330
1F
100
AcDbEntity
  8
KONTUR
 48
10.0
100
AcDbLine
 10
228.3423107713824
 20
139.1050899738819
 30
0.0
 11
229.1645406684592
 21
136.2457535945429
 31
0.0
  0
LINE
  5
2725
330
1F
100
AcDbEntity
  8
KONKORT
 48
10.0
100
AcDbLine
 10
248.6798848609414
 20
136.9382275625134
 30
0.0
 11
253.2147446811241
 21
136.9382275625134
 31
0.0
  0
LINE
  5
2726
330
1F
100
AcDbEntity
  8
KONCENTER
 48
10.0
100
AcDbLine
 10
248.3818774630108
 20
138.9382275625133
 30
0.0
 11
252.5887011157101
 21
138.9382275625133
 31
0.0
  0
LINE
  5
2727
330
1F
100
AcDbEntity
  8
KONKORT
 48
10.0
100
AcDbLine
 10
248.3818774630108
 20
140.9382275625134
 30
0.0
 11
250.9956949789029
 21
140.9382275625134
 31
0.0
  0
LINE
  5
2728
330
1F
100
AcDbEntity
  8
KONKORT
 48
10.0
100
AcDbLine
 10
238.3818650806015
 20
149.4382275625135
 30
0.0
 11
248.0818501206968
 21
149.4382275625134
 31
0.0
  0
ARC
  5
2729
330
1F
100
AcDbEntity
  8
KONTUR
 48
10.0
100
AcDbCircle
 10
246.8423107713824
 20
140.801387080764
 30
0.0
 40
1.5
100
AcDbArc
 50
0.0
 51
90.0
  0
ARC
  5
272A
330
1F
100
AcDbEntity
  8
KONTUR
 48
10.0
100
AcDbCircle
 10
251.6055833301254
 20
143.9087928669996
 30
0.0
 40
1.5
100
AcDbArc
 50
90.00000000000081
 51
211.1497018934088
  0
ARC
  5
272B
330
1F
100
AcDbEntity
  8
KONTUR
 48
10.0
100
AcDbCircle
 10
249.66863683637
 20
148.9087928669991
 30
0.0
 40
1.5
100
AcDbArc
 50
217.9872613036091
 51
270.0
  0
LINE
  5
272C
330
1F
100
AcDbEntity
  8
KONTUR
 48
10.0
100
AcDbLine
 10
253.201428056253
 20
147.4087928669991
 30
0.0
 11
253.201428056253
 21
145.4087928669996
 31
0.0
  0
LINE
  5
272D
330
1F
100
AcDbEntity
  8
KONTUR
 48
10.0
100
AcDbLine
 10
249.66863683637
 20
147.4087928669991
 30
0.0
 11
253.201428056253
 21
147.4087928669991
 31
0.0
  0
LINE
  5
272E
330
1F
100
AcDbEntity
  8
KONTUR
 48
10.0
100
AcDbLine
 10
253.201428056253
 20
145.4087928669996
 30
0.0
 11
251.6055833301254
 21
145.4087928669996
 31
0.0
  0
ARC
  5
272F
330
1F
100
AcDbEntity
  8
KONTUR
 48
10.0
100
AcDbCircle
 10
236.3422983889699
 20
148.9826339476694
 30
0.0
 40
4.65
100
AcDbArc
 50
328.8502981073412
 51
0.0
  0
ARC
  5
2730
330
1F
100
AcDbEntity
  8
KONTUR
 48
10.0
100
AcDbCircle
 10
250.060557723536
 20
148.9826339476694
 30
0.0
 40
4.65
100
AcDbArc
 50
180.0
 51
211.1497018926587
  0
LINE
  5
2731
330
1F
100
AcDbEntity
  8
KONTUR
 48
10.0
100
AcDbLine
 10
241.6055833302821
 20
144.3013870807637
 30
0.0
 11
244.7972727822238
 21
144.3013870807637
 31
0.0
  0
ARC
  5
2732
330
1F
100
AcDbEntity
  8
KONTUR
 48
10.0
100
AcDbCircle
 10
241.6055833302821
 20
145.8013870807636
 30
0.0
 40
1.5
100
AcDbArc
 50
148.8502981073516
 51
270.0
  0
ARC
  5
2733
330
1F
100
AcDbEntity
  8
KONTUR
 48
10.0
100
AcDbCircle
 10
244.7972727822238
 20
145.8013870807636
 30
0.0
 40
1.5
100
AcDbArc
 50
270.0
 51
31.14970189264837
  0
LINE
  5
2734
330
1F
100
AcDbEntity
  8
KONTUR
 48
10.0
100
AcDbLine
 10
246.8423107713824
 20
142.301387080764
 30
0.0
 11
239.5605453411226
 21
142.301387080764
 31
0.0
  0
LINE
  5
2735
330
1F
100
AcDbEntity
  8
KONTUR
 48
10.0
100
AcDbLine
 10
238.3423107713824
 20
148.9087928669991
 30
0.0
 11
238.3423107713824
 21
150.6050899738813
 31
0.0
  0
LINE
  5
2736
330
1F
100
AcDbEntity
  8
KONTUR
 48
10.0
100
AcDbLine
 10
238.0605453411226
 20
140.801387080764
 30
0.0
 11
238.0605453411226
 21
139.1050899738819
 31
0.0
  0
ARC
  5
2737
330
1F
100
AcDbEntity
  8
KONTUR
 48
10.0
100
AcDbCircle
 10
249.5605453411226
 20
149.0425422716915
 30
0.0
 40
1.5
100
AcDbArc
 50
180.0
 51
219.9005516681941
  0
LINE
  5
2738
330
1F
100
AcDbEntity
  8
KONTUR
 48
10.0
100
AcDbLine
 10
248.0605453411226
 20
149.0425422716915
 30
0.0
 11
248.0605453411226
 21
150.6050899738813
 31
0.0
  0
ARC
  5
2739
330
1F
100
AcDbEntity
  8
KONTUR
 48
10.0
100
AcDbCircle
 10
245.6096766165646
 20
145.7390386282539
 30
0.0
 40
3.649999999999999
100
AcDbArc
 50
37.98726130360943
 51
39.90055166819321
  0
ARC
  5
273A
330
1F
100
AcDbEntity
  8
KONTUR
 48
10.0
100
AcDbCircle
 10
246.3422983889695
 20
140.7275460000939
 30
0.0
 40
4.65
100
AcDbArc
 50
0.0
 51
31.14970189340891
  0
LINE
  5
273B
330
1F
100
AcDbEntity
  8
KONTUR
 48
10.0
100
AcDbLine
 10
248.3423107713824
 20
140.801387080764
 30
0.0
 11
248.3423107713824
 21
139.1050899738819
 31
0.0
  0
ARC
  5
273C
330
1F
100
AcDbEntity
  8
KONTUR
 48
10.0
100
AcDbCircle
 10
253.2014280562525
 20
140.7275460000939
 30
0.0
 40
2.209129667283376
100
AcDbArc
 50
180.0
 51
270.0
  0
LINE
  5
273D
330
1F
100
AcDbEntity
  8
KONTUR
 48
10.0
100
AcDbLine
 10
248.3423107713824
 20
139.1050899738819
 30
0.0
 11
249.1645406684592
 21
136.2457535945429
 31
0.0
  0
ARC
  5
273E
330
1F
100
AcDbEntity
  8
KONTUR
 48
10.0
100
AcDbCircle
 10
276.8522807155361
 20
138.1382625256366
 30
0.0
 40
3.2
100
AcDbArc
 50
269.9999999999992
 51
0.0
  0
ARC
  5
273F
330
1F
100
AcDbEntity
  8
KONTUR
 48
10.0
100
AcDbCircle
 10
275.5539559527308
 20
138.9382625256366
 30
0.0
 40
4.0
100
AcDbArc
 50
187.0849321089764
 51
270.0
  0
LINE
  5
2740
330
1F
100
AcDbEntity
  8
KONTUR
 48
10.0
100
AcDbLine
 10
275.5539559527308
 20
134.9382625256366
 30
0.0
 11
276.8522807155361
 21
134.9382625256366
 31
0.0
  0
LINE
  5
2741
330
1F
100
AcDbEntity
  8
KONTUR
 48
10.0
100
AcDbLine
 10
279.5824760842299
 20
145.7721016267994
 30
0.0
 11
279.5824760842299
 21
144.6345421509571
 31
0.0
  0
ARC
  5
2742
330
1F
100
AcDbEntity
  8
KONKORT
 48
10.0
100
AcDbCircle
 10
279.7534861558927
 20
146.2419479371925
 30
0.0
 40
0.5
100
AcDbArc
 50
250.0000000000154
 51
269.9999999999987
  0
ARC
  5
2743
330
1F
100
AcDbEntity
  8
KONKORT
 48
10.0
100
AcDbCircle
 10
279.7534861558927
 20
147.2419479371925
 30
0.0
 40
0.5
100
AcDbArc
 50
90.0
 51
109.9999999999843
  0
LINE
  5
2744
330
1F
100
AcDbEntity
  8
KONKORT
 48
10.0
100
AcDbLine
 10
279.5824760842299
 20
145.7721016267994
 30
0.0
 11
278.4522807155365
 21
146.1834590999092
 31
0.0
  0
LINE
  5
2745
330
1F
100
AcDbEntity
  8
KONKORT
 48
10.0
100
AcDbLine
 10
279.5824760842299
 20
147.7117942475856
 30
0.0
 11
278.4522807155365
 21
147.3004367744758
 31
0.0
  0
LINE
  5
2746
330
1F
100
AcDbEntity
  8
KONKORT
 48
10.0
100
AcDbLine
 10
279.7534861558927
 20
145.7419479371925
 30
0.0
 11
280.0522807155359
 21
145.7419479371925
 31
0.0
  0
LINE
  5
2747
330
1F
100
AcDbEntity
  8
KONKORT
 48
10.0
100
AcDbLine
 10
279.7534861558927
 20
147.7419479371925
 30
0.0
 11
280.0522807155359
 21
147.7419479371925
 31
0.0
  0
LINE
  5
2748
330
1F
100
AcDbEntity
  8
KONKORT
 48
10.0
100
AcDbLine
 10
279.7534861558927
 20
144.6345421509571
 30
0.0
 11
280.0522807155359
 21
144.6345421509571
 31
0.0
  0
LINE
  5
2749
330
1F
100
AcDbEntity
  8
KONKORT
 48
10.0
100
AcDbLine
 10
279.5824760842299
 20
144.6043884613502
 30
0.0
 11
278.4522807155365
 21
144.1930309882404
 31
0.0
  0
ARC
  5
274A
330
1F
100
AcDbEntity
  8
KONKORT
 48
10.0
100
AcDbCircle
 10
279.7534861558927
 20
144.1345421509571
 30
0.0
 40
0.5
100
AcDbArc
 50
90.00000000000122
 51
109.9999999999843
  0
LINE
  5
274B
330
1F
100
AcDbEntity
  8
KONKORT
 48
10.0
100
AcDbLine
 10
278.4522807155365
 20
147.3004367744759
 30
0.0
 11
278.4522807155374
 21
143.0760533136736
 31
0.0
  0
ARC
  5
274C
330
1F
100
AcDbEntity
  8
KONTUR
 48
10.0
100
AcDbCircle
 10
265.7204653546207
 20
145.1882450440734
 30
0.0
 40
7.0
100
AcDbArc
 50
349.4455346526519
 51
10.55446534734801
  0
LINE
  5
274D
330
1F
100
AcDbEntity
  8
KONKORT
 48
10.0
100
AcDbLine
 10
279.7534861558927
 20
142.6345421509571
 30
0.0
 11
280.0522807155359
 21
142.6345421509571
 31
0.0
  0
ARC
  5
274E
330
1F
100
AcDbEntity
  8
KONKORT
 48
10.0
100
AcDbCircle
 10
279.7534861558927
 20
143.1345421509571
 30
0.0
 40
0.5
100
AcDbArc
 50
250.0000000000154
 51
270.0
  0
LINE
  5
274F
330
1F
100
AcDbEntity
  8
KONKORT
 48
10.0
100
AcDbLine
 10
279.5573063978929
 20
138.8515714030036
 30
0.0
 11
271.6602702440507
 21
138.8515714030036
 31
0.0
  0
CIRCLE
  5
2750
330
1F
100
AcDbEntity
  8
KONTUR
 48
10.0
100
AcDbCircle
 10
276.052319034565
 20
138.9382450440746
 30
0.0
 40
2.000000000000171
  0
LINE
  5
2751
330
1F
100
AcDbEntity
  8
KONKORT
 48
10.0
100
AcDbLine
 10
279.5824760842299
 20
142.6646958405638
 30
0.0
 11
278.4522807155365
 21
143.0760533136735
 31
0.0
  0
LINE
  5
2752
330
1F
100
AcDbEntity
  8
KONTUR
 48
10.0
100
AcDbLine
 10
271.584498317454
 20
138.4449005066779
 30
0.0
 11
272.6020339667986
 21
143.9060541706527
 31
0.0
  0
ARC
  5
275F
330
1F
100
AcDbEntity
  8
KONTUR
 48
10.0
100
AcDbCircle
 10
225.2708609041685
 20
153.1050899738815
 30
0.0
 40
2.0
100
AcDbArc
 50
10.35043339447028
 51
90.00000000000081
  0
LINE
  5
2766
330
1F
100
AcDbEntity
  8
KONCENTER
 48
10.0
100
AcDbLine
 10
238.3818650806015
 20
151.4382275625133
 30
0.0
 11
248.0818501206968
 21
151.4382275625133
 31
0.0
  0
LINE
  5
2767
330
1F
100
AcDbEntity
  8
KONKORT
 48
10.0
100
AcDbLine
 10
238.6798848609414
 20
153.4382275625135
 30
0.0
 11
247.8020798700008
 21
153.4382275625134
 31
0.0
  0
ARC
  5
2768
330
1F
100
AcDbEntity
  8
KONTUR
 48
10.0
100
AcDbCircle
 10
245.2708609041685
 20
153.1050899738815
 30
0.0
 40
2.0
100
AcDbArc
 50
10.35043339447028
 51
90.00000000000081
  0
LINE
  5
2769
330
1F
100
AcDbEntity
  8
KONTUR
 48
10.0
100
AcDbLine
 10
241.1319952083365
 20
155.1050899738813
 30
0.0
 11
245.2708609041685
 21
155.1050899738815
 31
0.0
  0
ARC
  5
276A
330
1F
100
AcDbEntity
  8
KONTUR
 48
10.0
100
AcDbCircle
 10
241.1319952083365
 20
153.1050899738813
 30
0.0
 40
2.0
100
AcDbArc
 50
90.00000000000081
 51
169.6495666055198
  0
ARC
  5
27B2
330
1F
100
AcDbEntity
  8
KONTUR
 48
10.0
100
AcDbCircle
 10
276.8522807155361
 20
152.2382275625131
 30
0.0
 40
3.2
100
AcDbArc
 50
0.0
 51
90.00000000000081
  0
ARC
  5
27B3
330
1F
100
AcDbEntity
  8
KONTUR
 48
10.0
100
AcDbCircle
 10
275.5539559527308
 20
151.4382275625132
 30
0.0
 40
4.0
100
AcDbArc
 50
90.0
 51
172.9150678910236
  0
LINE
  5
27B4
330
1F
100
AcDbEntity
  8
KONKORT
 48
10.0
100
AcDbLine
 10
279.5573063978929
 20
151.5249186851457
 30
0.0
 11
271.6602702440507
 21
151.5249186851457
 31
0.0
  0
LINE
  5
27B5
330
1F
100
AcDbEntity
  8
KONTUR
 48
10.0
100
AcDbLine
 10
275.5539559527308
 20
155.4382275625132
 30
0.0
 11
276.8522807155361
 21
155.4382275625132
 31
0.0
  0
LINE
  5
2970
330
1F
100
AcDbEntity
  8
KONTUR
 48
10.0
100
AcDbLine
 10
44.4708352026928
 20
222.6676543021021
 30
0.0
 11
289.4708352026936
 21
222.6676543021021
 31
0.0
  0
ENDSEC
  0
SECTION
  2
OBJECTS
  0
DICTIONARY
  5
C
330
0
100
AcDbDictionary
281
     1
  3
ACAD_GROUP
350
D
  3
ACAD_LAYOUT
350
1A
  3
ACAD_MLINESTYLE
350
17
  3
ACAD_PLOTSETTINGS
350
19
  3
ACAD_PLOTSTYLENAME
350
E
  3
AcDbVariableDictionary
350
2AF8
  0
DICTIONARY
  5
D
102
{ACAD_REACTORS
330
C
102
}
330
C
100
AcDbDictionary
281
     1
  0
DICTIONARY
  5
1A
102
{ACAD_REACTORS
330
C
102
}
330
C
100
AcDbDictionary
281
     1
  3
Layout1
350
1E
  3
Layout2
350
26
  3
Model
350
22
  0
DICTIONARY
  5
17
102
{ACAD_REACTORS
330
C
102
}
330
C
100
AcDbDictionary
281
     1
  3
Standard
350
18
  0
DICTIONARY
  5
19
102
{ACAD_REACTORS
330
C
102
}
330
C
100
AcDbDictionary
281
     1
  0
ACDBDICTIONARYWDFLT
  5
E
102
{ACAD_REACTORS
330
C
102
}
330
C
100
AcDbDictionary
281
     1
  3
Normal
350
F
100
AcDbDictionaryWithDefault
340
F
  0
DICTIONARY
  5
2AF8
102
{ACAD_REACTORS
330
C
102
}
330
C
100
AcDbDictionary
281
     1
  3
DIMASSOC
350
2AF9
  0
LAYOUT
  5
1E
102
{ACAD_REACTORS
330
1A
102
}
330
1A
100
AcDbPlotSettings
  1

  2

  4

  6

 40
0.0
 41
0.0
 42
0.0
 43
0.0
 44
0.0
 45
0.0
 46
0.0
 47
0.0
 48
0.0
 49
0.0
140
0.0
141
0.0
142
1.0
143
1.0
 70
   688
 72
     0
 73
     0
 74
     5
  7

 75
    16
147
1.0
148
0.0
149
0.0
100
AcDbLayout
  1
Layout1
 70
     1
 71
     1
 10
0.0
 20
0.0
 11
12.0
 21
9.0
 12
0.0
 22
0.0
 32
0.0
 14
1.000000000000000E+20
 24
1.000000000000000E+20
 34
1.000000000000000E+20
 15
-1.000000000000000E+20
 25
-1.000000000000000E+20
 35
-1.000000000000000E+20
146
0.0
 13
0.0
 23
0.0
 33
0.0
 16
1.0
 26
0.0
 36
0.0
 17
0.0
 27
1.0
 37
0.0
 76
     0
330
1B
  0
LAYOUT
  5
26
102
{ACAD_REACTORS
330
1A
102
}
330
1A
100
AcDbPlotSettings
  1

  2

  4

  6

 40
0.0
 41
0.0
 42
0.0
 43
0.0
 44
0.0
 45
0.0
 46
0.0
 47
0.0
 48
0.0
 49
0.0
140
0.0
141
0.0
142
1.0
143
1.0
 70
   688
 72
     0
 73
     0
 74
     5
  7

 75
    16
147
1.0
148
0.0
149
0.0
100
AcDbLayout
  1
Layout2
 70
     1
 71
     2
 10
0.0
 20
0.0
 11
12.0
 21
9.0
 12
0.0
 22
0.0
 32
0.0
 14
0.0
 24
0.0
 34
0.0
 15
0.0
 25
0.0
 35
0.0
146
0.0
 13
0.0
 23
0.0
 33
0.0
 16
1.0
 26
0.0
 36
0.0
 17
0.0
 27
1.0
 37
0.0
 76
     0
330
23
  0
LAYOUT
  5
22
102
{ACAD_REACTORS
330
1A
102
}
330
1A
100
AcDbPlotSettings
  1

  2
HP DeskJet 1120C
  4
A4
  6

 40
4.180416584014892
 41
13.49374961853027
 42
4.180404663085937
 43
3.926422119140625
 44
209.9733276367187
 45
296.9259948730469
 46
0.0
 47
0.0
 48
0.0
 49
0.0
140
0.0
141
0.0
142
1.0
143
1.0
 70
 11952
 72
     0
 73
     1
 74
     0
  7

 75
     0
147
1.0
148
-738.5477589838869
149
-232.0944089263599
100
AcDbLayout
  1
Model
 70
     1
 71
     0
 10
0.0
 20
0.0
 11
12.0
 21
9.0
 12
0.0
 22
0.0
 32
0.0
 14
0.0
 24
0.0
 34
0.0
 15
0.0
 25
0.0
 35
0.0
146
0.0
 13
0.0
 23
0.0
 33
0.0
 16
1.0
 26
0.0
 36
0.0
 17
0.0
 27
1.0
 37
0.0
 76
     0
330
1F
  0
MLINESTYLE
  5
18
102
{ACAD_REACTORS
330
17
102
}
330
17
100
AcDbMlineStyle
  2
STANDARD
 70
     0
  3

 62
   256
 51
90.0
 52
90.0
 71
     2
 49
0.5
 62
   256
  6
BYLAYER
 49
-0.5
 62
   256
  6
BYLAYER
  0
ACDBPLACEHOLDER
  5
F
102
{ACAD_REACTORS
330
E
102
}
330
E
  0
DICTIONARYVAR
  5
2AF9
102
{ACAD_REACTORS
330
2AF8
102
}
330
2AF8
100
DictionaryVariables
280
     0
  1
1
  0
ENDSEC
  0
EOF
